Guitar Tabs for Her

(/) Slide Up  (\) Slide Down  (h) Hammer On  (p) Pull Off  (b) Bend (r) Release (v) Vibrato (x) Muted

Tabs for Song : 
BPM : 80

intro / verse chords

E|--------x-----------------
B|--11----x-----------------
G|--10----x-----------------
D|--11-11-x-----------------
A|--9-----x---------9h11----
E|--------x---9h11----------

E|--------x--------------
B|--11----x--------------
G|--11----x--------------
D|--9--9--x--------------
A|--11----x--------9-----
E|--------x---9h11----11-

pre chorus

E|--------------------------------------------------------------------
B|--11-------11-------6--------6--------11-------11-------11-------11-
G|--11-------10-------6--------6--------11-------10-------10-------9--
D|--9--------11-------6--------5--------9--------11-------11-------11-
A|--11-------------------------6--------11----------------9--------10-
E|-----------9--------6--------------------------9--------------------

E|-----------------------------------------------6--------4--
B|--11-------11-------6--------7--------4--------4--------4--
G|--11-------10-------6--------6--------4--------4--------4--
D|--9--------11-------6--------8--------4--------------------
A|--11-------------------------6-----------------4--------4--
E|-----------9--------6-----------------4--------------------

chorus

E|--------------------------------------------------------------------
B|--11-------11-------11-------11-------11-------11-------11-------11-
G|--11-------10-------10-------11-------11-------10-------10-------9--
D|--9--------11-------11-------11-------9--------11-------11-------11-
A|--11----------------9-----------------11----------------9--------10-
E|-----------9-----------------11----------------9--------------------

E|--------------------------------------------------------------------------
B|--11-------11-------6--------6--------4--------6--------7--------7--------
G|--11-------10-------6--------6--------4--------6--------8--------8--------
D|--9--------11-------6--------5--------4--------6--------8--------9--------
A|--11-------------------------6--------------------------------------------
E|-----------9--------6-----------------4--------6--------7--------9---------

tabs and chords, guitar tabs, music transcription, music technology, deep learning, music information retrieval, transcribe into tabs & chords, chordify, music renditions, songsterr, reverbnation, tabulature, bollywood chords, ultimate guitar, yousician, guitar lessons, acoustic guitar, electric guitar, guitar tuner, 911 tabs