Help Save The Youth Of America From Exploding - Less Than Jake - Guitar Tabs

Track 1
    
                                                                                                                                                                                                                                                                                                                                                                                                                                                                                                                                                                                                 
E|-------------------------------------|
B|-------------------------------------|
G|-------------------------------------|
D|--7--7--x--x--x--x--5--5--x--x--x--x-|
A|--7--7--x--x--x--x--5--5--x--x--x--x-|
E|--5--5--x--x--x--x--3--3--x--x--x--x-|

    
                                                                                                                                                                                                                                                                                                                                                                                                                                                                                                                                                                                                 
E|-------------------------------------|
B|-------------------------------------|
G|--------------------7--7--x--x--x--x-|
D|--5--5--x--x--x--x--7--7--x--x--x--x-|
A|--5--5--x--x--x--x--5--5--x--x--x--x-|
E|--3--3--x--x--x--x-------------------|

    
                                                                                                                                                                                                                                                                                                                                                                                                                                                                                                                                                                                                                                                                                                                                                                                                                                                                                                                                                                                                                                                                                                                                                                                              
E|-------------------------------------|-----------------------------------|
B|-------------------------------------|-----------------------------------|
G|-------------------------------------|------------------7--7--x--x--x--x-|
D|--7--7--x--x--x--x--9--9--x--x--x--x-|5--5--x--x--x--x--7--7--x--x--x--x-|
A|--7--7--x--x--x--x--9--9--x--x--x--x-|5--5--x--x--x--x--5--5--x--x--x--x-|
E|--5--5--x--x--x--x--7--7--x--x--x--x-|3--3--x--x--x--x-------------------|

    
                                                                                                                                                                                                                                                                                                                                                                                                                                                                                                                                                                                                                                                                                                                                                                                                                                                                                                                                                                                                                                                                                                                                                                                              
E|-------------------------------------------|-----------------------------------------|
B|-------------------------------------------|-----------------------------------------|
G|--------------------------------7-----7--6-|7--5--5--5--5--5--5--5--5--5--4-----4----|
D|--7--x--x--x--x--x--x--x--x--x--7-----7--6-|7--5--5--5--5--5--5--5--5--5--4-----4--4-|
A|--7--x--x--x--x--x--x--x--x--x--5-----5--4-|5-----------------------------2-----2--4-|
E|--5--x--x--x--x--x--x--x--x--x-------------|---------------------------------------2-|

    
                                                                                                                                                                                                                                                                                                                                                                                                                                                                                                                                                                                                                                                                                                                                                                                                                                                                                                                                                                                                                                                                                                                                                                                              
E|-------------------------------------|--------------------------------|
B|-------------------------------------|--------------------------------|
G|-----------------6--7--------------7-|--------------------------------|
D|--5--x--x--x--x--6--7--x--x--x--x--7-|7--x--x--x--x--x--x-------------|
A|--5--x--x--x--x--4--5--x--x--x--x--5-|7--x--x--x--x--x--x--4--4--5--5-|
E|--3--x--x--x--x--------x--x--x--x----|5--x--x--x--x--x--x-------------|

    
                                                                                                                                                                                                                                                                                                                                                                                                                                                                                                                                                                                                                                                                                                                                                                                                                                                                                                                                                                                                                                                                                                                                                                                              
E|-------------------------------------------|-----------------------------------------|
B|-------------------------------------------|-----------------------------------------|
G|--------------------------------7-----7--6-|7-----------------------------4-----4----|
D|--7--x--x--x--x--x--x--x--x--x--7-----7--6-|7--x--x--x--x--x--x--x--x--x--4-----4--4-|
A|--7--x--x--x--x--x--x--x--x--x--5-----5--4-|5--x--x--x--x--x--x--x--x--x--2-----2--4-|
E|--5--x--x--x--x--x--x--x--x--x-------------|---x--x--x--x--x--x--x--x--x-----------2-|

    
                                                                                                                                                                                                                                                                                                                                                                                                                                                                                                                                                                                                                                                                                                                                                                                                                                                                                                                                                                                                                                                                                                                                                                                              
E|-------------------------------------|--------------------------------|
B|-------------------------------------|--------------------------------|
G|-----------------6--7--------------7-|--------------------------------|
D|--5--x--x--x--x--6--7--x--x--x--x--7-|7--x--x--x--x--x--x-------------|
A|--5--x--x--x--x--4--5--x--x--x--x--5-|7--x--x--x--x--x--x--4--4--5--5-|
E|--3--x--x--x--x--------x--x--x--x----|5--x--x--x--x--x--x-------------|

    
                                                                                                                                                                                                                                                                                                                                                                                                                                                                                                                                                                                                                                                                                                                                                                                                                                                                                                                                                                                                                                                                                                                                                                                              
E|----------------------------------------|--------------------------------------|
B|----------------------------------------|--------------------------------------|
G|----------------------------------------|7--7--7--7--7--7-----7--7--7--7--7--7-|
D|--7--7--7--7--7--7-----7--7--7--7--7--7-|7--7--7--7--7--7-----7--7--7--7--7--7-|
A|--7--7--7--7--7--7-----7--7--7--7--7--7-|5--5--5--5--5--5-----5--5--5--5--5--5-|
E|--5--5--5--5--5--5-----5--5--5--5--5--5-|--------------------------------------|

    
                                                                                                                                                                                                                                                                                                                                                                                                                                                                                                                                                                                                                                                                                                                                                                                                                                                                                                                                                                                                                                                                                                                                                                                              
E|----------------------------------------|--------------------------------------|
B|----------------------------------------|--------------------------------------|
G|-----------------7-----7--7--7--7--7--7-|--------------------------------------|
D|--5--5--5--5--5--7-----7--7--7--7--7--7-|7--7--7--7--7--7-----7--7--7--7--7--7-|
A|--5--5--5--5--5--5-----5--5--5--5--5--5-|7--7--7--7--7--7-----7--7--7--7--7--7-|
E|--3--3--3--3--3-------------------------|5--5--5--5--5--5-----5--5--5--5--5--5-|

    
                                                                                                                                                                                                                                                                                                                                                                                                                                                                                                                                                                                                                                                                                                                                                                                                                                                                                                                                                                                                                                                                                                                                                                                              
E|----------------------------------------|--------------------------------------|
B|----------------------------------------|--------------------------------------|
G|----------------------------------------|7--7--7--7--7--7-----7--7--7--7--7--7-|
D|--7--7--7--7--7--7-----7--7--7--7--7--7-|7--7--7--7--7--7-----7--7--7--7--7--7-|
A|--7--7--7--7--7--7-----7--7--7--7--7--7-|5--5--5--5--5--5-----5--5--5--5--5--5-|
E|--5--5--5--5--5--5-----5--5--5--5--5--5-|--------------------------------------|

    
                                                                                                                                                                                                                                                                                                                                                                                                                                                                                                                                                                                                                                                                                                                                                                                                                                                                                                                                                                                                                                                                                                                                                                                              
E|----------------------------------------|--------------------------------------|
B|----------------------------------------|--------------------------------------|
G|-----------------7-----7--7--7--7--7--7-|--------------------------------------|
D|--5--5--5--5--5--7-----7--7--7--7--7--7-|7--7--7--7--7--7-----7--7--7--7--7--5-|
A|--5--5--5--5--5--5-----5--5--5--5--5--5-|7--7--7--7--7--7-----7--7--7--7--7--5-|
E|--3--3--3--3--3-------------------------|5--5--5--5--5--5-----5--5--5--5--5--3-|

    
                                                                                                                                                                                                                                                                                                                                                                                                                                                                                                                                                                                                                                                                                                                                                                                                                                                                                                                                                                                                                                                                                                                                                                                              
E|-------------------------------------------|-----------------------------------------|
B|-------------------------------------------|-----------------------------------------|
G|--------------------7-----7--7--7--7--7----|------------------9-----9--9--9--9--9----|
D|-----5--5--5--5--5--7-----7--7--7--7--7--7-|---7--7--7--7--7--9-----9--9--9--9--9--5-|
A|-----5--5--5--5--5--5-----5--5--5--5--5--7-|---7--7--7--7--7--7-----7--7--7--7--7--5-|
E|-----3--3--3--3--3-----------------------5-|---5--5--5--5--5-----------------------3-|

    
                                                                                                                                                                                                                                                                                                                                                                                                                                                                                                                                                                                                                                                                                                                                                                                                                                                                                                                                                                                                                                                                                                                                                                                              
E|-------------------------------------------|-----------------------------------------|
B|-------------------------------------------|-----------------------------------------|
G|--------------------7-----7--7--7--7--7----|------------------9-----9--9--9--9--9----|
D|-----5--5--5--5--5--7-----7--7--7--7--7--7-|---7--7--7--7--7--9-----9--9--9--9--9--5-|
A|-----5--5--5--5--5--5-----5--5--5--5--5--7-|---7--7--7--7--7--7-----7--7--7--7--7--5-|
E|-----3--3--3--3--3-----------------------5-|---5--5--5--5--5-----------------------3-|

    
                                                                                                                                                                                                                                                                                                                                                                                                                                                                                                                                                                                                                                                                                                                                                                                                                                                                                                                                                                                                                                                                                                                                                                                              
E|-------------------------------------------|--------------------------------------|
B|-------------------------------------------|--------------------------------------|
G|--------------------7-----7--7--7--7--7----|------------------9-----9--9--9--9--9-|
D|-----5--5--5--5--5--7-----7--7--7--7--7--7-|---7--7--7--7--7--9-----9--9--9--9--9-|
A|-----5--5--5--5--5--5-----5--5--5--5--5--7-|---7--7--7--7--7--7-----7--7--7--7--7-|
E|-----3--3--3--3--3-----------------------5-|---5--5--5--5--5----------------------|

    
                                                                                                                                                                                                                                                                                                                                                                                                                                                                                                                                                                                                                                                                                                                                                                                                                                                                                                                                                                                                                                                                                                                                                                                              
E|-------------------------------------|--------------------------|
B|-------------------------------------|--------------------------|
G|-------------------------------------|7-----7-----7-----7--7--7-|
D|--5-----5-----5-----x--x--x--x--x--x-|7-----7-----7-----7--7--7-|
A|--5-----5-----5-----x--x--x--x--x--x-|5-----5-----5-----5--5--5-|
E|--3-----3-----3-----x--x--x--x--x--x-|--------------------------|

    
                                                                                                                                                                                                                                                                                                                                                                                                                                                                                                                                                                                                                                                                                                                                                                                                                                                                                                                                                                                                                                                                                                                                                                                              
E|-------------------------------------|-----------------------------------|
B|-------------------------------------|-----------------------------------|
G|-------------------------------------|------------------7--7--7--7--7--7-|
D|--7--7--7--7--7--7--5--5--5--5--5--5-|5--5--5--5--5--5--7--7--7--7--7--7-|
A|--7--7--7--7--7--7--5--5--5--5--5--5-|5--5--5--5--5--5--5--5--5--5--5--5-|
E|--5--5--5--5--5--5--3--3--3--3--3--3-|3--3--3--3--3--3-------------------|

    
                                                                                                                                                                                                                                                                                                                                                                                                                                                                                                                                                                                                                                                                                                                                                                                                                                                                                                                                                                                                                                                                                                                                                                                              
E|-------------------------------------|-----------------------------------|
B|-------------------------------------|-----------------------------------|
G|-------------------------------------|------------------7--7--7--7--7--7-|
D|--7--7--7--7--7--7--9--9--9--9--9--9-|5--5--5--5--5--5--7--7--7--7--7--7-|
A|--7--7--7--7--7--7--9--9--9--9--9--9-|5--5--5--5--5--5--5--5--5--5--5--5-|
E|--5--5--5--5--5--5--7--7--7--7--7--7-|3--3--3--3--3--3-------------------|

    
                                                                                                                                                                                                                                                                                                                                                                                                                                                                                                                                                                                                                                                                                                                                                                                                                                                                                                                                                                                                                                                                                                                                                                                              
E|-------------------------------------|-----------------------------------|
B|-------------------------------------|-----------------------------------|
G|-------------------------------------|------------------7--7--7--7--7--7-|
D|--7--7--7--7--7--7--5--5--5--5--5--5-|5--5--5--5--5--5--7--7--7--7--7--7-|
A|--7--7--7--7--7--7--5--5--5--5--5--5-|5--5--5--5--5--5--5--5--5--5--5--5-|
E|--5--5--5--5--5--5--3--3--3--3--3--3-|3--3--3--3--3--3-------------------|

    
                                                                                                                                                                                                                                                                                                                                                                                                                                                                                                                                                                                                                                                                                                                                                                                                                                                                                                                                                                                                                                                                                                                                                                                              
E|-------------------------------------|-----------------------------------|
B|-------------------------------------|-----------------------------------|
G|-------------------------------------|------------------7--7--7--7--7--7-|
D|--7--7--7--7--7--7--9--9--9--9--9--9-|5--5--5--5--5--5--7--7--7--7--7--7-|
A|--7--7--7--7--7--7--9--9--9--9--9--9-|5--5--5--5--5--5--5--5--5--5--5--5-|
E|--5--5--5--5--5--5--7--7--7--7--7--7-|3--3--3--3--3--3-------------------|

    
                                                                                                                                                                                                                                                                                                                                                                                                                                                                                                                                                                                                                                                                                                                                                                                                                                                                                                                                                                                                                                                                                                                                                                                              
E|-------------------------------------------|-----------------------------------------|
B|-------------------------------------------|-----------------------------------------|
G|--------------------------------7-----7--6-|7-----------------------------4-----4----|
D|--7--x--x--x--x--x--x--x--x--x--7-----7--6-|7--x--x--x--x--x--x--x--x--x--4-----4--4-|
A|--7--x--x--x--x--x--x--x--x--x--5-----5--4-|5--x--x--x--x--x--x--x--x--x--2-----2--4-|
E|--5--x--x--x--x--x--x--x--x--x-------------|---x--x--x--x--x--x--x--x--x-----------2-|

    
                                                                                                                                                                                                                                                                                                                                                                                                                                                                                                                                                                                                                                                                                                                                                                                                                                                                                                                                                                                                                                                                                                                                                                                              
E|-------------------------------------|--------------------------------|
B|-------------------------------------|--------------------------------|
G|-----------------6--7--------------7-|--------------------------------|
D|--5--x--x--x--x--6--7--x--x--x--x--7-|7--x--x--x--x--x--x-------------|
A|--5--x--x--x--x--4--5--x--x--x--x--5-|7--x--x--x--x--x--x--4--4--5--5-|
E|--3--x--x--x--x--------x--x--x--x----|5--x--x--x--x--x--x-------------|

    
                                                                                                                                                                                                                                                                                                                                                                                                                                                                                                                                                                                                                                                                                                                                                                                                                                                                                                                                                                                                                                                                                                                                                                                              
E|----------------------------------------|--------------------------------------|
B|----------------------------------------|--------------------------------------|
G|----------------------------------------|7--7--7--7--7--7-----7--7--7--7--7--7-|
D|--7--7--7--7--7--7-----7--7--7--7--7--7-|7--7--7--7--7--7-----7--7--7--7--7--7-|
A|--7--7--7--7--7--7-----7--7--7--7--7--7-|5--5--5--5--5--5-----5--5--5--5--5--5-|
E|--5--5--5--5--5--5-----5--5--5--5--5--5-|--------------------------------------|

    
                                                                                                                                                                                                                                                                                                                                                                                                                                                                                                                                                                                                                                                                                                                                                                                                                                                                                                                                                                                                                                                                                                                                                                                              
E|----------------------------------------|--------------------------------------|
B|----------------------------------------|--------------------------------------|
G|-----------------7-----7--7--7--7--7--7-|--------------------------------------|
D|--5--5--5--5--5--7-----7--7--7--7--7--7-|7--7--7--7--7--7-----7--7--7--7--7--7-|
A|--5--5--5--5--5--5-----5--5--5--5--5--5-|7--7--7--7--7--7-----7--7--7--7--7--7-|
E|--3--3--3--3--3-------------------------|5--5--5--5--5--5-----5--5--5--5--5--5-|

    
                                                                                                                                                                                                                                                                                                                                                                                                                                                                                                                                                                                                                                                                                                                                                                                                                                                                                                                                                                                                                                                                                                                                                                                              
E|----------------------------------------|--------------------------------------|
B|----------------------------------------|--------------------------------------|
G|----------------------------------------|7--7--7--7--7--7-----7--7--7--7--7--7-|
D|--7--7--7--7--7--7-----7--7--7--7--7--7-|7--7--7--7--7--7-----7--7--7--7--7--7-|
A|--7--7--7--7--7--7-----7--7--7--7--7--7-|5--5--5--5--5--5-----5--5--5--5--5--5-|
E|--5--5--5--5--5--5-----5--5--5--5--5--5-|--------------------------------------|

    
                                                                                                                                                                                                                                                                                                                                                                                                                                                                                                                                                                                                                                                                                                                                                                                                                                                                                                                                                                                                                                                                                                                                                                                              
E|----------------------------------------|--------------------------------------|
B|----------------------------------------|--------------------------------------|
G|-----------------7-----7--7--7--7--7--7-|--------------------------------------|
D|--5--5--5--5--5--7-----7--7--7--7--7--7-|7--7--7--7--7--7-----7--7--7--7--7--5-|
A|--5--5--5--5--5--5-----5--5--5--5--5--5-|7--7--7--7--7--7-----7--7--7--7--7--5-|
E|--3--3--3--3--3-------------------------|5--5--5--5--5--5-----5--5--5--5--5--3-|

    
                                                                                                                                                                                                                                                                                                                                                                                                                                                                                                                                                                                                                                                                                                                                                                                                                                                                                                                                                                                                                                                                                                                                                                                              
E|-------------------------------------------|-----------------------------------------|
B|-------------------------------------------|-----------------------------------------|
G|--------------------7-----7--7--7--7--7----|------------------9-----9--9--9--9--9----|
D|-----5--5--5--5--5--7-----7--7--7--7--7--7-|---7--7--7--7--7--9-----9--9--9--9--9--5-|
A|-----5--5--5--5--5--5-----5--5--5--5--5--7-|---7--7--7--7--7--7-----7--7--7--7--7--5-|
E|-----3--3--3--3--3-----------------------5-|---5--5--5--5--5-----------------------3-|

    
                                                                                                                                                                                                                                                                                                                                                                                                                                                                                                                                                                                                                                                                                                                                                                                                                                                                                                                                                                                                                                                                                                                                                                                              
E|-------------------------------------------|-----------------------------------------|
B|-------------------------------------------|-----------------------------------------|
G|--------------------7-----7--7--7--7--7----|------------------9-----9--9--9--9--9----|
D|-----5--5--5--5--5--7-----7--7--7--7--7--7-|---7--7--7--7--7--9-----9--9--9--9--9--5-|
A|-----5--5--5--5--5--5-----5--5--5--5--5--7-|---7--7--7--7--7--7-----7--7--7--7--7--5-|
E|-----3--3--3--3--3-----------------------5-|---5--5--5--5--5-----------------------3-|

    
                                                                                                                                                                                                                                                                                                                                                                                                                                                                                                                                                                                                                                                                                                                                                                                                                                                                                                                                                                                                                                                                                                                                                                                              
E|-------------------------------------------|--------------------------------------|
B|-------------------------------------------|--------------------------------------|
G|--------------------7-----7--7--7--7--7----|------------------9-----9--9--9--9--9-|
D|-----5--5--5--5--5--7-----7--7--7--7--7--7-|---7--7--7--7--7--9-----9--9--9--9--9-|
A|-----5--5--5--5--5--5-----5--5--5--5--5--7-|---7--7--7--7--7--7-----7--7--7--7--7-|
E|-----3--3--3--3--3-----------------------5-|---5--5--5--5--5----------------------|

    
                                                                                                                                                                                                                                                                                                                                                                                                                                                                                                                                                                                                                                                                                                                                                                                                                                                                                                                                                                                                                                                                                                                                                                                              
E|-------------------------------------|--------------------------|
B|-------------------------------------|--------------------------|
G|-------------------------------------|7-----7-----7-----7--7--7-|
D|--5-----5-----5-----x--x--x--x--x--x-|7-----7-----7-----7--7--7-|
A|--5-----5-----5-----x--x--x--x--x--x-|5-----5-----5-----5--5--5-|
E|--3-----3-----3-----x--x--x--x--x--x-|--------------------------|

    
                                                                                                                                                                                                                                                                                                                                                                                                                                                                                                                                                                                                                                                                                                                                                                                                                                                                                                                                                                                                                                                                                                                                                                                              
E|-------------------------------------|-----------------------------------|
B|-------------------------------------|-----------------------------------|
G|-------------------------------------|------------------7--7--7--7--7--7-|
D|--7--7--7--7--7--7--5--5--5--5--5--5-|5--5--5--5--5--5--7--7--7--7--7--7-|
A|--7--7--7--7--7--7--5--5--5--5--5--5-|5--5--5--5--5--5--5--5--5--5--5--5-|
E|--5--5--5--5--5--5--3--3--3--3--3--3-|3--3--3--3--3--3-------------------|

About Borders & Boundaries : The album was recorded at Grand Master Studios in Hollywood, CA, with producer Steve Kravac . It is the final studio album to feature saxophonist Derron Nuhfer and trombonist Pete Anna . The cover art features a map of the area around Gainesville, Florida . Included on some copies is a spinning wheel which tells you the distance between Gainesville and eight places around the world . Fat Wreck was originally slated to be released on Capitol Records . The band's drummer, Vinnie Fiorello, wrote about the matter on the linear-notes for the band's 2009 greatest hits album, Wrecktro It had a contribution from notable artists like Steve Kravac,Derron Nuhfer,Pete Anna. It had an affiliation to bands - Borders & Boundaries,Less Than Jake. Its music is influenced by genres - ska punk.

tabs and chords, guitar tabs, music transcription, music technology, deep learning, music information retrieval, transcribe into tabs & chords, chordify, music renditions, songsterr, reverbnation, tabulature, bollywood chords, ultimate guitar, yousician, guitar lessons, acoustic guitar, electric guitar, guitar tuner, 911 tabs