Guitar Tabs for Hello

(/) Slide Up  (\) Slide Down  (h) Hammer On  (p) Pull Off  (b) Bend (r) Release (v) Vibrato (x) Muted

Tabs for Song : 

Song lyrics here
E|--0--------------------3--3--3--2--2--2--2--2--2--2--2--2--3--3--3--3--3--3--------------3--3--3--
B|--1--1--1--1--1--------3--3--3--1--1--1--1--1--1--1--1--1--3--3--3--3--3--3--1--1--1--1--3--3--3--
G|--0--------------------4--4--4--2--2--2--2--2--2--2--2--2--4--4--4--4--4--4--2--2--2--2--4--4--4--
D|--2--2--2--2--2--2--2--5--5--5-----------------------------5--5--5--5--5--5--2--2--2--2--5--5--5--
A|--3--3--3--3--3--2--2--5--5--5-----------------------------5--5--5--5--5--5--------------5--5--5--
E|-----------------------3--3--3-----------------------------3--3--3--3--3--3--------------3--3--3--

Song lyrics here
E|--2--2--2---------------------------------5h8--
B|--1--1--1--------------------------------------
G|--2--2--2---------------------------5/8--------
D|-----------------------------5--8--------------
A|-----------------------6--7--------------------
E|-----------5--8--6--7--------------------------

Paste any tab in acousterr's tab maker and we'll play it !!!
Now supports capo and sound effects for vibrato/pull-off/hammer/bends/mutes etc !!! Checkout help section
tabs and chords, guitar tabs, music transcription, music technology, deep learning, music information retrieval, transcribe into tabs & chords, chordify, music renditions, songsterr, reverbnation, tabulature, bollywood chords, ultimate guitar, yousician, guitar lessons, acoustic guitar, electric guitar, guitar tuner, 911 tabs