Guitar Tabs for Hell Gate Riff Bonnelez

(/) Slide Up  (\) Slide Down  (h) Hammer On  (p) Pull Off  (b) Bend (r) Release (v) Vibrato (x) Muted

Tabs for Song : 
BPM : 400

Song lyrics here
D|--------------------------------------------------------
A|--------------------------------------------------------
F|--------------------------------------------------------
C|--7-----------------------------------------------------
G|--5--------------------5--8--5-----4--7--4-----3--6--3--
C|-----0--0--0--0--0--0-----------0-----------0-----------

D|-----------------------------------------------
A|-----------------------------------------------
F|-----------------------------------------------
C|--7--------------------------------------------
G|--5--------------------------------------------
C|-----0--0--0--0--0--0--0--5--7--5--0--5--7--8--

D|--------------------------------------------------------
A|--------------------------------------------------------
F|--------------------------------------------------------
C|--7-----------------------------------------------------
G|--5--------------------5--8--5-----4--7--4-----3--6--3--
C|-----0--0--0--0--0--0-----------0-----------0-----------

D|--------------------------------------------
A|--------------------------------------------
F|--------------------------------------------
C|--7-----------------------------------------
G|--5--------------------------1--0-----------
C|-----0--0--0--0--0--0--0--3--------5--3--2--




Song lyrics here
D|--
A|--
F|--
C|--
G|--
C|--

Paste any tab in acousterr's tab maker and we'll play it !!!
Now supports capo and sound effects for vibrato/pull-off/hammer/bends/mutes etc !!! Checkout help section
tabs and chords, guitar tabs, music transcription, music technology, deep learning, music information retrieval, transcribe into tabs & chords, chordify, music renditions, songsterr, reverbnation, tabulature, bollywood chords, ultimate guitar, yousician, guitar lessons, acoustic guitar, electric guitar, guitar tuner, 911 tabs