Guitar Tabs for Fur Elise

(/) Slide Up  (\) Slide Down  (h) Hammer On  (p) Pull Off  (b) Bend (r) Release (v) Vibrato (x) Muted

Tabs for Song : 

Song lyrics here
E|--12-11-12-11-12-7--10-8--5-----------5--7-----------7--8-----0--
B|-----------------------------------5--------------9--------------
G|--------------------------------5--------------9-----------------
D|-----------------------------------------------------------------
A|-----------------------------------------------------------------
E|-----------------------------------------------------------------

E|-----12-11-12-11-12-7--10-8--5-----------5--7-----0--8--7--5--------
B|--------------------------------------5-----------------------------
G|-----------------------------------5--------------------------------
D|--------------------------------------------------------------------
A|--------------------------------------------------------------------
E|--------------------------------------------------------------------

E|----E---7--8--10-1--2-----13-12-1--0-----12-10-8--0--10-8--7--0--0--12-0--12-12----11-
B|--------------------------------------------------------------------------------------
G|--------------------12-------------10-------------------------------------------------
D|--------------------------------------------------------------------------------------
A|--------------------------------------------------------------------------------------
E|--------------------------------------------------------------------------------------

E|----E---12-11-12-11-12-11-12-11-12-11-12-7--10-8--5-----------5--7-----------7--8-----0--
B|--------------------------------------------------------5--------------9-----------------
G|-----------------------------------------------------5--------------9--------------------
D|-----------------------------------------------------------------------------------------
A|-----------------------------------------------------------------------------------------
E|-----------------------------------------------------------------------------------------

E|--12-11-12-11-12-7--10-8--5-----------5--7-----0--8--7--5--
B|-----------------------------------5-----------------------
G|--------------------------------5--------------------------
D|-----------------------------------------------------------
A|-----------------------------------------------------------
E|-----------------------------------------------------------

E|----E---7--8--10-1--2-----13-12-1--0-----12-10-8--0--10-8--7--0--0--12-0--12-12----11-
B|--------------------------------------------------------------------------------------
G|--------------------12-------------10-------------------------------------------------
D|--------------------------------------------------------------------------------------
A|--------------------------------------------------------------------------------------
E|--------------------------------------------------------------------------------------

E|----E---12-11-12-11-12-11-12-11-12-11-12-7--10-8--5-----------5--7-----------7--8-----0--
B|--------------------------------------------------------5--------------9-----------------
G|-----------------------------------------------------5--------------9--------------------
D|-----------------------------------------------------------------------------------------
A|-----------------------------------------------------------------------------------------
E|-----------------------------------------------------------------------------------------

E|----E---12-11-12-11-12-7--10-8--5-----------5--7-----0--8--7--5-----
B|--------------------------------------5-----------------------------
G|-----------------------------------5--------------------------------
D|--------------------------------------------------------------------
A|--------------------------------------------------------------------
E|--------------------------------------------------------------------

tabs and chords, guitar tabs, music transcription, music technology, deep learning, music information retrieval, transcribe into tabs & chords, chordify, music renditions, songsterr, reverbnation, tabulature, bollywood chords, ultimate guitar, yousician, guitar lessons, acoustic guitar, electric guitar, guitar tuner, 911 tabs