Guitar Tabs for Heaven's Door, Try#1

(/) Slide Up  (\) Slide Down  (h) Hammer On  (p) Pull Off  (b) Bend (r) Release (v) Vibrato (x) Muted

Tabs for Song : 

Song lyrics here
E|-----------3-----------3-----------2-----------2-----------------------0--
B|--------0-----------0-----------3-----------3--------------1--------1-----
G|-----0-----------0-----------2-----------2--------------2--------2--------
D|--------------0-----------0--------------------------2--------2-----------
A|--------------------------------------0-----------0-----------------------
E|--3-----------------------------------------------------------------------

Song lyrics here
E|-----------------------3-----------2-----------------------------------0--
B|-----------3--------3-----------3--------------3-----------1--------1-----
G|--------0--------0-----------2--------------2-----------0--------0--------
D|-----0--------0-----------0--------------0-----------2--------------------
A|--------------------------------------0-----------3-----------------------
E|--3-----------------------------------------------------------3-----------

Paste any tab in acousterr's tab maker and we'll play it !!!
Now supports capo and sound effects for vibrato/pull-off/hammer/bends/mutes etc !!! Checkout help section
tabs and chords, guitar tabs, music transcription, music technology, deep learning, music information retrieval, transcribe into tabs & chords, chordify, music renditions, songsterr, reverbnation, tabulature, bollywood chords, ultimate guitar, yousician, guitar lessons, acoustic guitar, electric guitar, guitar tuner, 911 tabs