Guitar Tabs for Heathens Bass Arrangement

(/) Slide Up  (\) Slide Down  (h) Hammer On  (p) Pull Off  (b) Bend (r) Release (v) Vibrato (x) Muted

Tabs & Chords
BPM : 89.0
Check Track 2 for Chord Positions 

    C           Am             E                 C              Am             Em    E        
E|--------------------------------------------------------------------------------------------
B|--0--1--0-----0--1--0--------------0-----0-----0--1-----0--------0--0--1--0--------0--------
G|-----------0-----------0--0--1-----------------------------0-----------------0--------------
D|--------------------------------------------------------------------------------------------
A|-----------------------------------------------------3--------3-----------------------------
E|-----------------------------------------------------------------------------------------0--

          C  Am       E                 C              Am          E              C           
E|--------------------------------------------------------------------------------------------
B|--------------------------------------------------------------------------------------------
G|--------------------------------------------------------------------------------------------
D|--------0--------0--2--------2--0--2--0--------2--2--0--------0--2--2--------1--------------
A|-----------3--3--------2-----------------3--3-----------3--3-----------2-----------0--------
E|--------------------------------------------------------------------------------3-----3--3--

                   G  Em                      G        A                       
E|-----------------------------------------------------------------2-----------
B|-----------------------------------------------------------------------------
G|--------------------1--------------------------------------------------------
D|-----------------------------------------------------------------------------
A|--0--------------------------------------------------0--0-----2-----0--2--2--
E|-----3--3--2--3--3-----3--4--3-----3--3-----3--2--3--------------------------

Guitar Tabs for Heathens Bass Arrangement






    C           Am             E                 C              Am             Em    E        
E|--0-----------0--------------0-----------------0--------------0--------------0-----0--------
B|--1-----------1--------------0-----------------1--------------1--------------0-----0--------
G|--0-----------2--------------1-----------------0--------------2--------------0-----1--------
D|--2-----------2--------------2-----------------2--------------2--------------2-----2--------
A|--3-----------0--------------2-----------------3--------------0--------------2-----2--------
E|-----------------------------0-----------------------------------------------0-----0--------

          C  Am       E                 C              Am          E              C           
E|--------0--0--------0-----------------0--------------0-----------0--------------0-----------
B|--------1--1--------0-----------------1--------------1-----------0--------------1-----------
G|--------0--2--------1-----------------0--------------2-----------1--------------0-----------
D|--------2--2--------2-----------------2--------------2-----------2--------------2-----------
A|--------3--0--------2-----------------3--------------0-----------2--------------3-----------
E|--------------------0--------------------------------------------0--------------------------

                   G  Em                      G        A                       
E|-----------------3--0-----------------------3--------0-----------------------
B|-----------------3--0-----------------------3--------2-----------------------
G|-----------------4--0-----------------------4--------2-----------------------
D|-----------------5--2-----------------------5--------2-----------------------
A|-----------------5--2-----------------------5--------0-----------------------
E|-----------------3--0-----------------------3--------------------------------

tabs and chords, guitar tabs, music transcription, music technology, deep learning, music information retrieval, transcribe into tabs & chords, chordify, music renditions, songsterr, reverbnation, tabulature, bollywood chords, ultimate guitar, yousician, guitar lessons, acoustic guitar, electric guitar, guitar tuner, 911 tabs