Guitar Tabs for He Is We - I Wouldn't Mind

He Is We - I Wouldn't Mind

Intro
E|--------------0-----3--------3--3--0--
B|--------0--1--1-----1--------1--1--3-- 
G|--------2-----------2-----0--------0--  2x
D|-----2-----------3--------------------
A|--0--------------------3-----------2--
E|--------------------------------------

Verse

   Merrily we fall out of line, out of line
E|--------------0-----3--------3--3-----0--
B|--------0--1--1-----1--------1--1-----1-- 
G|--------2-----------2-----0-----------0--  
D|-----2-----------3-----------------------
A|--0--------------------3-----------2-----
E|-----------------------------------------

  I’d fall anywhere with you I’m by your side
E|--------------0-----3--------3--3-----0--
B|--------0--1--1-----1--------1--1-----1-- 
G|--------2-----------2-----0-----------0--  
D|-----2-----------3-----------------------
A|--0--------------------3-----------2-----
E|-----------------------------------------

   Swinging in the rain Humming melodies
E|--------------0-----3--------3--3-----0--
B|--------0--1--1-----1--------1--1-----1-- 
G|--------2-----------2-----0-----------0--  
D|-----2-----------3-----------------------
A|--0--------------------3-----------2-----
E|-----------------------------------------

We're not going anywhere until we freeze
E|--------------0-----3--------3--3-----0--
B|--------0--1--1-----1--------1--1-----1-- 
G|--------2-----------2-----0-----------0--  
D|-----2-----------3-----------------------
A|--0--------------------3-----------2-----
E|-----------------------------------------

E|--------------0-----3-----0--3-----0--
B|--------0--1--1-----1--1--------1----- 
G|--------2-----------2--0--------0-----  
D|-----2-----------3-----2--------------
A|--0--------------------3--------2-----
E|--------------------------------------

Pre-Chorus

I’m not afraid, anymore
E|-----------------0--------3--------3--
B|--------1--------1--------3--------1--
G|--------0-----0--------0--------2-----
D|-----2-----------------------3--------
A|--0--------2--------3-----------------
E|--------------------------------------

I’m not afraid
E|-----------------0--------3-----3--
B|--------1--------1--------3-----1--
G|--------0-----0--------0--------2--
D|-----2--------------------------3--
A|--0--------2--------3--------------
E|-----------------------------------

Chorus

Strum Pattern ->  D-DUDU-D-DUDU

    F9  C         Am7   G11
    Forever is a  long  time
E|--3--0-----------0-----0--
B|--1--1-----------1-----1--
G|--2--0-----------0-----0--
D|--3--2-----------2-----0--
A|-----3-----------0-----2--
E|-----------------------3--

    F9    C                         Am7      G11
But I    wouldn't mind spending it  by your  side
E|--3-----0--------------------------0--------0--
B|--1-----1--------------------------1--------1--
G|--2-----0--------------------------0--------0--
D|--3-----2--------------------------2--------0--
A|--------3--------------------------0--------2--
E|--------------------------------------------3--

2nd Verse

     Carefully we'll place our destiny
E|--------------0-----3--------3--3-----0--
B|--------0--1--1-----1--------1--1-----1-- 
G|--------2-----------2-----0-----------0--  
D|-----2-----------3-----------------------
A|--0--------------------3-----------2-----
E|-----------------------------------------
  You came and you took this heart, and set it free
E|--------------0--------3-----------3--3--------0--
B|--------0--1--1--------1-----------1--1--------1-- 
G|--------2--------------2--------0--------------0--  
D|-----2--------------3-----------------------------
A|--0--------------------------3--------------2-----
E|--------------------------------------------------
    Every word you write or sing is so warm to me
E|--------------0-----3--------3--3-----0--
B|--------0--1--1-----1--------1--1-----1-- 
G|--------2-----------2-----0-----------0--  
D|-----2-----------3-----------------------
A|--0--------------------3-----------2-----
E|-----------------------------------------
          So warm    to me      I’m 
E|--------------0-----3--------3--3-----0--
B|--------0--1--1-----1--------1--1-----1-- 
G|--------2-----------2-----0-----------0--  
D|-----2-----------3-----------------------
A|--0--------------------3-----------2-----
E|-----------------------------------------
     Torn,      I’m       torn       to 
E|--------------0-----3--------3--3-----0--
B|--------0--1--1-----1--------1--1-----1-- 
G|--------2-----------2-----0-----------0--  
D|-----2-----------3-----------------------
A|--0--------------------3-----------2-----
E|-----------------------------------------
    be right where you are
E|--------------0-----3-----0--3-----0--
B|--------0--1--1-----1--1--------1----- 
G|--------2-----------2--0--------0-----  
D|-----2-----------3-----2--------------
A|--0--------------------3--------2-----
E|--------------------------------------

Pre-Chorus

I’m not afraid, anymore
E|-----------------0--------3--------3--
B|--------1--------1--------3--------1--
G|--------0-----0--------0--------2-----
D|-----2-----------------------3--------
A|--0--------2--------3-----------------
E|--------------------------------------

I’m not afraid
E|-----------------0--------3-----3--
B|--------1--------1--------3-----1--
G|--------0-----0--------0--------2--
D|-----2--------------------------3--
A|--0--------2--------3--------------
E|-----------------------------------

2nd Chorus

    F9  C         Am7   G11
    Forever is a  long  time
E|--3--0-----------0-----0--
B|--1--1-----------1-----1--
G|--2--0-----------0-----0--
D|--3--2-----------2-----0--
A|-----3-----------0-----2--
E|-----------------------3--

    F9    C                         Am7      G11
But I    wouldn't mind spending it  by your  side
E|--3-----0--------------------------0--------0--
B|--1-----1--------------------------1--------1--
G|--2-----0--------------------------0--------0--
D|--3-----2--------------------------2--------0--
A|--------3--------------------------0--------2--
E|--------------------------------------------3--

    F9             C                   Am7   G11
  Tell me everyday I get to wake up to that smile
E|--3--------------0--------------------0-----0--
B|--1--------------1--------------------1-----1--
G|--2--------------0--------------------0-----0--
D|--3--------------2--------------------2-----0--
A|-----------------3--------------------0-----2--
E|--------------------------------------------3--

I wouldn't mind it at all, I wouldn't mind it, ehh eh
E|--3--------------0--------------------0-----3--
B|--1--------------1--------------------1-----1--
G|--2--------------0--------------------0-----0--
D|--3--------------2--------------------2-----0--
A|-----------------3--------------------0-----2--
E|--------------------------------------------3--

Bridge

   F9       C/E       D4/7     C
   You so know me          
E|--------3-----------3--------------3-----------3-----
B|-----------1-----------1--------------1-----------1--
G|-----0-----------0--------------0-----------0--------
D|--3-----------2--------------0-----------------------
A|-----------------------------------------3-----------
E|-----------------------------------------------------

   F9          C/E            D4/7          C
   Pinch        me             gen---------tly
E|--------3-----------3--------------3-----------3-----
B|-----------1-----------1--------------1-----------1--
G|-----0-----------0--------------0-----------0--------
D|--3-----------2--------------0-----------------------
A|-----------------------------------------3-----------
E|-----------------------------------------------------

    I          can              hard-------ly 
E|--------3-----------3--------------3-----------3-----
B|-----------1-----------1--------------1-----------1--
G|-----0-----------0--------------0-----------0--------
D|--3-----------2--------------0-----------------------
A|-----------------------------------------3-----------
E|-----------------------------------------------------

    Bre----------------------------athe
E|--------3-----------3--------------3-----3--------
B|-----------1-----------1--------------1--1--------
G|-----0-----------0--------------0--------0--------
D|--3-----------2--------------0-----------2--------
A|-----------------------------------------3--------
E|--------------------------------------------------

3rd Chorus

    F9  C         Am7   G11
    Forever is a  long  time
E|--3--0-----------0-----0--
B|--1--1-----------1-----1--
G|--2--0-----------0-----0--
D|--3--2-----------2-----0--
A|-----3-----------0-----2--
E|-----------------------3--

    F9    C                         Am7      G11
But I    wouldn't mind spending it  by your  side
E|--3-----0--------------------------0--------0--
B|--1-----1--------------------------1--------1--
G|--2-----0--------------------------0--------0--
D|--3-----2--------------------------2--------0--
A|--------3--------------------------0--------2--
E|--------------------------------------------3--

    F9             C                   Am7   G11
  Tell me everyday I get to wake up to that smile
E|--3--------------0--------------------0-----0--
B|--1--------------1--------------------1-----1--
G|--2--------------0--------------------0-----0--
D|--3--------------2--------------------2-----0--
A|-----------------3--------------------0-----2--
E|--------------------------------------------3--

I wouldn't mind it at all, I wouldn't mind it, ehh eh
E|--3--------------0--------------------0-----3--
B|--1--------------1--------------------1-----1--
G|--2--------------0--------------------0-----0--
D|--3--------------2--------------------2-----0--
A|-----------------3--------------------0-----2--
E|--------------------------------------------3--
tabs and chords, guitar tabs, music transcription, music technology, deep learning, music information retrieval, transcribe into tabs & chords, chordify, music renditions, songsterr, reverbnation, tabulature, bollywood chords, ultimate guitar, yousician, guitar lessons, acoustic guitar, electric guitar, guitar tuner, 911 tabs