Bass Tabs for The Beatles - Revolution

The Beatles - Revolution 

Intro
G|--------
D|--------
A|--------
E|---6\1--

1st Verse
G|------------------------------------------------------------------------------------------------------
D|------------------------------------------------------------------------------------------------------
A|-----5--8--5--8-----5--8--5--8--------5--6---------------6\----------------5--8--5--8-----5--8--5--8--
E|--6--------------6-----------------6--------3--6---6h8-------3--6 -6h8--6--------------6--------------

G|---------------------------------------------------------------------------------------------------
D|--------------------------------------------5--8--5--8-----5--8--5--8------------------------------
A|-----5--8--5--8-----5--8--5--8--------5--6--------------6--------------8--6--5--3--------3-----3---
E|--6--------------6-----------------6-----------------------------------------------1--5-----5------

Pre Chorus
G|--------------------------------------------------------------------------
D|--------------------------------------------------------------------------
A|--------------------------------------------------------------------------
E|--3-----------1-----------3-----------3--4--6--3--3--3--3-----1--1--1--1--

1st Chorus
G|-----------------------------------------------------      G|-----
D|-----------------------------------------------------  3x  D|-----
A|---------------------------5/6---5/6---5/6-----------      A|-----
E|---5/6---5/6---5/6---5/6--------------------3--4--5--      E|--1--

2nd Verse End Variation
G|--------------------------------
D|-----7--10-7--10----------------
A|--8--------------------3-----3--
E|-----------------1--5-----5-----

2nd & 3rd Chorus 
G|-----------------------------------------------------------------------------------------------------------------
D|--------------------5--8--5--8-----------------------------------------------5--8--5--8--3-----------------------
A|-----5--8--5--8--6-----------------5--8--5--8--6--------------5--8--5--8--6--------------------------------------
E|--6-----------------------------6-----------------3--4--5--6-----------------------------------0--0--0--0--0--0--

Crazy Part
G|--------       G---------       G|---------      G|---------------
D|--------  10x  D---------  8X   D|---------  8X  D|---------------
A|--------       A----5/6--       A|----7/8--      A|---------------
E|---5/6--       E---------       E|---------      E|---0--3--4--6--


All Right Part
G|-----------------------------------------------------------------------------
D|--------------------5--8--5--8--------------------------------------------6--
A|-----5--8--5--8--6-----------------5--8--5--8--6--------------5--8--5--8-----
E|--6-----------------------------6-----------------3--4--5--6-----------------

G|--------------------------------------------------------
D|--------------------------------------------------------
A|--------------------------------------------------------
E|--3--6--3--6--1-----1--1-----1--1-----1--6--1-----8--6~~

tabs and chords, guitar tabs, music transcription, music technology, deep learning, music information retrieval, transcribe into tabs & chords, chordify, music renditions, songsterr, reverbnation, tabulature, bollywood chords, ultimate guitar, yousician, guitar lessons, acoustic guitar, electric guitar, guitar tuner, 911 tabs