Guitar Tabs for Hayaan Mo Sila - Ex Battalion & Oc Dawgs

(/) Slide Up  (\) Slide Down  (h) Hammer On  (p) Pull Off  (b) Bend (r) Release (v) Vibrato (x) Muted

Tabs for Song : Hayaan Mo Sila

Intro
E|-----x-----x-----x-----------------x-----x-----x--------|---------x-----------------------x------------------
B|--1--x-----x-----x--1--1--------1--x-----x-----x--0--0--|---1--1--x--1--1-----------------x--------0--0---0--
G|--0--x--2--x--2--x--0--0---2p0--0--x--2--x--2--x--0--0--|---0--0--x--0--0--2-----2--2--2--x--2--2-----0---0--
D|-----x--2--x--3--x-----0-----------x--2--x--3--x-----0--|---------x--------------2--3--3--x--3--3-----0------
A|--3--x--0--x-----x--------------3--x--0--x-----x--------|---3-----x-----------0-----------x------------------
E|-----x-----x--1--x--3--------------x-----x--1--x--3-----|---------x-----------------1-----x-----------3------

E|--------x-----------------------x-----------
B|--1--1--x--1--1-----------------x--------0--
G|--0--0--x--0--0--2-----2--2--2--x--2--2-----
D|--------x--------------2--3--3--x--3--3-----
A|--3-----x-----------0-----------x-----------
E|--------x-----------------1-----x-----------

CHORUS:

  Kalimutan mo na yan...
E|--------------------0--------------------0--------------------0--------------------0--------3--1--0--1--
B|--1--1--1--1--3--3-----1--1--1--1--3--3-----1--1--1--1--3--3-----1--1--1--1--3--3-----1--1--------------
G|--------------------------------------------------------------------------------------------------------
D|--------------------------------------------------------------------------------------------------------
A|--------------------3-----------------------0-----------------------------------------------------------
E|--3-----------------------------------------------------------1-----------------------3-----------------

   ..bae dapat di iniinda...
E|--0--------------------------3--1--0--1--0-----------------------
B|-----1--1--1--1--1--3--1--------------------1--1--1--1--1--3--1--
G|-----------------------------------------------------------------
D|-----------------------------------------------------------------
A|--3-----------------------0--------------------------------------
E|-----------------------------------------1-----------------------

  Sabi ko naman sayo...
E|--------------------0--------------------0-----------------------------------------0--3--0--------
B|--1--1--1--1--3--3-----1--1--1--1--3--3-----1--1--1--1--1--1--1--1--1--1--1--1--3-----------3--1--
G|--------------------------------------------------------------------------------------------------
D|--------------------------------------------------------------------------------------------------
A|--------------------3-----------------------0-----------------------------------------------------
E|--3-----------------------------------------------------------1-----------------------3-----------

  Kaya wag nang uulit pa...
E|--------3--1--1--0--------0-----------------------------
B|--------------------3--3-----3--1--------1--1--1--1--1--
G|-----0--------------------------------2-----------------
D|--------------------------------------------------------
A|--3--------------------0--------------------------------
E|-----------------------------------1--------------------




  Heto nanaman tayo...

E|-----------------0-----x--------------------0-----x-----------------0-----x-----------------0-----x-----
B|--1--1--1--1--3-----1--x--1--1--1--1--3--3-----1--x--1--1--1--1--3-----1--x--1--1--1--1--3-----1--x--3--
G|-----------------------x--------------------------x-----------------------x-----------------------x-----
D|-----------------------x--------------------------x-----------------------x-----------------------x-----
A|-----------------3-----x--0-----------------------x-----------------3-----x--0--------------------x-----
E|--3--------------------x--------------------1-----x--3--------------------x-----------------1-----x--3--

Now supports capo and sound effects for vibrato/pull-off/hammer/bends/mutes etc !!! Checkout help section
tabs and chords, guitar tabs, music transcription, music technology, deep learning, music information retrieval, transcribe into tabs & chords, chordify, music renditions, songsterr, reverbnation, tabulature, bollywood chords, ultimate guitar, yousician, guitar lessons, acoustic guitar, electric guitar, guitar tuner, 911 tabs