Guitar Tabs for Hawayein - Harry Met Sejal Tabs

(/) Slide Up  (\) Slide Down  (h) Hammer On  (p) Pull Off  (b) Bend (r) Release (v) Vibrato

Tabs for Song : 

Tujhko… main rakh loon wahaan
E|--5--------------------------------
B|-----8--7--7--8--7--5--------------
G|-----------------------7--7--4-----
D|-----------------------------------
A|-----------------------------------
E|-----------------------------------

Jahaan pe kahin
E|-----------------------
B|-----------5--7--5-----
G|--4--4--7--------------
D|-----------------------
A|-----------------------
E|-----------------------

Hai mera yaqeen
E|-----------------------
B|-----------------------
G|--6--6--7--6--4--------
D|-----------------7-----
A|-----------------------
E|-----------------------



Main jo… tera naa huaa
E|--5--------------------------------
B|-----8--7--7--8--7--5--------------
G|-----------------------7--7--4-----
D|-----------------------------------
A|-----------------------------------
E|-----------------------------------

Kisi ka nahin…
E|-----------------------
B|-----------5--7--5-----
G|--4--4--7--------------
D|-----------------------
A|-----------------------
E|-----------------------

Kisi ka nahin..
E|-----------------------
B|-----------------------
G|--6--6--7--6--4--------
D|-----------------7-----
A|-----------------------
E|-----------------------

Le jaayein jaane kahaan
E|--------------------------
B|--------------------------
G|--7--7--6--4-----4--4-----
D|--------------7-----------
A|--------------------------
E|--------------------------

Hawayein, hawayein…
E|--------------------------
B|--------------------------
G|--7--4--4-----7--4--4-----
D|--------------------------
A|--------------------------
E|--------------------------

Le jaayein tujhe kahaan
E|--------------------------
B|--------------------------
G|--7--7--6--4--------------
D|--------------5--7--7-----
A|--------------------------
E|--------------------------

Hawayein, hawayein…
E|-----------------------
B|-----------------------
G|--4--------4-----------
D|-----7--7-----7--7-----
A|-----------------------
E|-----------------------

Begaani hai yeh baaghi
E|--------------------------
B|--------------------------
G|--7--7--6--4-----4--4-----
D|--------------7-----------
A|--------------------------
E|--------------------------

Hawayein, hawayein
E|--------------------------
B|--------------------------
G|--7--4--4-----7--4--4-----
D|--------------------------
A|--------------------------
E|--------------------------

Le jaayein mujhe kahaan
E|--------------------------
B|--------------------------
G|--7--7--6--4--------------
D|--------------5--7--7-----
A|--------------------------
E|--------------------------

Hawayein, hawayein…
E|-----------------------
B|-----------------------
G|--4--------4-----------
D|-----7--7-----7--7-----
A|-----------------------
E|-----------------------

Le jaayein jaane kahaan, na mujhko khabar
E|--------------------------------------------
B|--------------5-----8--7--5-----------5-----
G|--------6--7-----7-----------7--6--7--------
D|--7--7--------------------------------------
A|--------------------------------------------
E|--------------------------------------------

Na tujhko pataa…
E|--------------------
B|--------------------
G|--6--6--6--6--7-----
D|--------------------
A|--------------------
E|--------------------


Ooo.....
E|-----5-----------------
B|--------8-----8--7-----
G|--7--------7-----------
D|-----------------------
A|-----------------------
E|-----------------------

Oooo... ho..   hoo...

E|-----5-----------------------------------------
B|--------8--7--8-----8--7--5-----5--------------
G|--7--------------7-----------7-----7--6--7-----
D|-----------------------------------------------
A|-----------------------------------------------
E|-----------------------------------------------

Banaati hai jo tu…
E|-----------------------
B|-----------------7-----
G|-----4-----------------
D|--7-----7--6--7--------
A|-----------------------
E|-----------------------

Woh yaadein jaane sang mere kab tak chale
E|--------------------------------------------
B|--7--7--5--7--8--5--------------------------
G|--------------------7--7--6--6--7--6--4-----
D|--------------------------------------------
A|--------------------------------------------
E|--------------------------------------------

Inhi mein to meri…
E|-----------------------
B|-----------------8-----
G|--4--6--4-----4--------
D|-----------6-----------
A|-----------------------
E|-----------------------

Subah bhi dhalein, Shamein dhalein, Mausam dhalein
E|--------------------------------------------
B|--8--8--7--7--5--5-----------------8--7-----
G|--------------------7--7--6--6--7-----------
D|--------------------------------------------
A|--------------------------------------------
E|--------------------------------------------

Khayalon ka shehar…
E|-----------------------
B|-----------------7-----
G|-----4-----------------
D|--7-----7--6--7--------
A|-----------------------
E|-----------------------

Tu jaane tere hone se hi aabaad hai
E|--5-----------------------------------------
B|-----8--7--7--5--5--------------------------
G|--------------------7--7--6--6--7--6--4-----
D|--------------------------------------------
A|--------------------------------------------
E|--------------------------------------------

Hawayein haq mein…
E|-----------------------
B|-----------------8-----
G|--4--6--4-----4--------
D|-----------8-----------
A|-----------------------
E|-----------------------

Wohi hai aate jaate jo tera naam le
E|--------------------------------------------
B|--8--8--7--7--5--5-----------------8--7-----
G|--------------------7--7--6--6--7-----------
D|--------------------------------------------
A|--------------------------------------------
E|--------------------------------------------

Deti hain jo sadayein
E|--------------------------
B|--7--7--5-----------------
G|-----------7--6--4--4-----
D|--------------------------
A|--------------------------
E|--------------------------

Hawayein, hawayein
E|-----------------------
B|-----------------------
G|--7--4--4--7--4--4-----
D|-----------------------
A|-----------------------
E|-----------------------

Na jaane kya batayein
E|--------------------------
B|--------------------------
G|--7--4--7--4--------------
D|--------------5--7--7-----
A|--------------------------
E|--------------------------

Hawayein, hawayein
E|-----------------------
B|-----------------------
G|--4--------4-----------
D|-----7--7-----7--7-----
A|-----------------------
E|-----------------------

tabs and chords, guitar tabs, music transcription, music technology, deep learning, music information retrieval, transcribe into tabs & chords, chordify, music renditions, songsterr, reverbnation, tabulature, bollywood chords, ultimate guitar, yousician, guitar lessons, acoustic guitar, electric guitar, guitar tuner, 911 tabs