Bass Tabs for Hark! The Herald Angels Sing

(/) Slide Up  (\) Slide Down  (h) Hammer On  (p) Pull Off  (b) Bend (r) Release (v) Vibrato (x) Muted

Tabs for Song : Hark, the herald
BPM : 100

Hark the herald  angels sing glory to the newborn king

G|-----------------------------------------------------------------------------------------------------------
D|--5--5--5-----------------------------------------------5--5--5--------------------------------------------
A|-----------5-----2-----5-----2--2--3--3-----5--5-----------------5-----7--5--4-----2--4--5-----------5-----
E|--------------------3-----------------------------3-----------------------------5-----------2--3--5--------

Joyful all  you nations rise, join the triumph of the skies  with thángelic host proclaim christ is born in Bethlehem   

G|-----------------------------------------------------------------------------------------5--5--4-----------------
D|-----------9-----------------------------9--------------------------------------7-----------------5-----------5--
A|-----------------9--10-5--------------------9--10-5--------3--3--3--3-----3--7--------------------------5--5-----
E|-----------------------------------------------------------------------------------------------------------------
Hark the herald angels sing, Christ is born in Bethlehem

G|-----------------------------5--5--4--------------------
D|-----------------------7--------------5-----------5-----
A|--3--3--3--3-----3--7-----------------------5--5--------
E|--------------------------------------------------------




Song lyrics here
G|--
D|--
A|--
E|--

Paste any tab in acousterr's tab maker and we'll play it !!!
Now supports capo and sound effects for vibrato/pull-off/hammer/bends/mutes etc !!! Checkout help section
tabs and chords, guitar tabs, music transcription, music technology, deep learning, music information retrieval, transcribe into tabs & chords, chordify, music renditions, songsterr, reverbnation, tabulature, bollywood chords, ultimate guitar, yousician, guitar lessons, acoustic guitar, electric guitar, guitar tuner, 911 tabs