Guitar Tabs for Happy Birthday

(/) Slide Up  (\) Slide Down  (h) Hammer On  (p) Pull Off  (b) Bend (r) Release (v) Vibrato (x) Muted

Tabs for Song : 
B|--------------------------------------------------------------3-----
A|--------------------------------------------------------------0-----
E|--2--2--5-----2-----------------------7---7/5-----2-----3-----2-----
B|--------------------3-----2-----0-----------------------------3-----
A|-----------0-----0-----0-----0-----0-----------0-----0--------0-----
D|--------------------------------------------------------------0-----

B|-----------------------------------
A|-----------------------------0-----
E|-----------------------------3-----
B|--------------------3--2-----2-----
A|--0--0--2-----0--------------0-----
D|-----------------------------2-----

B|-----------------------------
A|-----------------------------
E|-----------------------------
B|---------------------5/3-----
A|--0--0--2-----0--------------
D|-----------------------------

B|--------------------------------------------------------------3--
A|--------------------------------------------------------------0--
E|--2--2--5-----2-----------------------7---7/5-----2-----3-----2--
B|--------------------3-----2-----0-----------------------------3--
A|-----------0-----0-----0-----0-----0-----------0-----0--------0--
D|--------------------------------------------------------------0--

BPM : 200
tabs and chords, guitar tabs, music transcription, music technology, deep learning, music information retrieval, transcribe into tabs & chords, chordify, music renditions, songsterr, reverbnation, tabulature, bollywood chords, ultimate guitar, yousician, guitar lessons, acoustic guitar, electric guitar, guitar tuner, 911 tabs