Bass Tabs for Hallelujah Here Below - Eb

(/) Slide Up  (\) Slide Down  (h) Hammer On  (p) Pull Off  (b) Bend (r) Release (v) Vibrato (x) Muted

Tabs for Song : Hallelujah Here Below - Eb 
BPM : 200

Verse  -  played 2 times per verse 
G|-----------------------
D|-----------------------
A|--3-----6-----3-----1--
E|-----4-----------4-----

Chorus 
G|--------------------------
D|--------------------------
A|--------6-----------3--1--
E|--3--4-----6--3--4--------

Bridge
G|-----------------------------
D|-----------------------------
A|--6--------3--1-----6--------
E|-----1--3--------4-----1--3--

G|--
D|--
A|--
E|--





Use manual mode to free up cursor. Paste any tab in acousterr tab maker and we'll play it !!!
tabs and chords, guitar tabs, music transcription, music technology, deep learning, music information retrieval, transcribe into tabs & chords, chordify, music renditions, songsterr, reverbnation, tabulature, bollywood chords, ultimate guitar, yousician, guitar lessons, acoustic guitar, electric guitar, guitar tuner, 911 tabs