Bass Tabs for Half Spoken - Why You Go

(/) Slide Up  (\) Slide Down  (h) Hammer On  (p) Pull Off  (b) Bend (r) Release (v) Vibrato (x) Muted

Tabs for Song : WHY YOU GO
BPM : 155

INTRO x2
G|--------------------------------------------------------------------------------------------------
D|--------------------------------------------------------------------------------------------------
A|--------------------9-----------------------------------------------5-----------------------------
E|--10----10----10-10----10----10-10-10-5--5--5--5--7-----7-----7--7-----3-----3--3--3--3--3--3--3--

PRE-VERSE
G|--------------------------------------------------------------------------------------------------
D|--------------------------------------------------------------------------------------------------
A|--------------------------------------------------------------------------------------5--5--5--5--
E|--5-----5-----5--5--5--3-----3--3--3-----3--3--3--5-----5-----5--5--5--3-----3--3--3--------------

G|--------------------------------------------------------------------------
D|--------------------------------------------------------------------------
A|--------------------------------------------------------------------------
E|--5-----5-----5--5--5--3-----3--3--3-----3--3--3--2--2--7--7--5--5--3--3--

VERSEx2 "LET ME USE SOMETHING USEFUL"
G|--------------------------------------------------------------------------------------------------
D|--------------------------------------------------------------------------------------------------
A|--9--9--0--0--------------------------------------------------------------------------------------
E|--------------10----10----10-10-10-10-10-10-10-10-3--3--3--3--3--3--3--3--7--7--7--7--5--5--5--5--

PRE-CHORUS "JUST WAIT TILL WE"
G|--------------------------------------------------------------------------------------------------
D|--------------------------------------------------------------------------------------------------
A|--9--9--------------------------------------------------------------------------------------------
E|--------10-10-10-10-10-10-10-10-10-10-10-10-10-10-3--3--3--3--3--3--3--3--7--7--7--7--5--5--5--5--


G|--------------------------------------------------------------------------------------------------
D|--------------------------------------------------------------------------------------------------
A|--------------------------------------------------------------------------------------------------
E|--10-10-10-10-10-10-10-10-10-10-10-10-10-10-10-10-3--3--3--3--3--3--3--3--7--7--7--7--5--5--5--5--

"THIS IS PATHETIC!"
G|--------------------------
D|--------------------------
A|--5--5--5--9--9--9--10-10-
E|--------------------------

"CHORUS" THIS IS JUST CONCLUDING CIRCLES
G|--------------------------------------------------------------------------------------------------
D|--------------------------------------------------------------------------------------------------
A|--------------------------------------------------------------------------------------------------
E|--10-10-10-10-5--5--5--5--3--3--3--3--3--3--3--3--10-10-10-10-5--5--5--5--3--3--3--3--3--3--3--3--

"I TOLD YOU THE REASON"

G|--------------------------------------------------------------------------------------------------
D|--------------------------------------------------------------------------------------------------
A|--------------------------------------------------------------------------------------------------
E|--10----10----10----10----5-----5-----5-----5-----3-----3------3/5-----3-----3-----5-----5--------

G|--------------------------------------------------------------------------------------------------
D|--------------------------------------------------------------------------------------------------
A|--------------------9-----------------------------------------------------------------------------
E|--10----10----10----------5-----5-----5-----5-----3-----3------3/5-----3-----3-----5-----5--------

"WOO!"

BACK TO INTRO/VERSE/PRE-CHOSRUS


ENDING "PLEASE DONT STAY TO LONG"


G|--------------------------------------------------------------------------------------------------
D|--------------------------------------------------------------------------------------------------
A|--------------------------------------------------------------------------------------------------
E|--10----------------------------------------------------------------------------------------------

 "THESE GET TOO WEIRD" X2
G|--------------------------------------------------------------------------------------------------
D|--------------------------------------------------------------------------------------------------
A|--------------------------------------------------------------------------------------------------
E|--10-10-10-10-10-10-10-10-3--3--3--3--5--5--5--5--10-10-10-10-10-10-10-10-3--3--3--3--5--5--5--5--



tabs and chords, guitar tabs, music transcription, music technology, deep learning, music information retrieval, transcribe into tabs & chords, chordify, music renditions, songsterr, reverbnation, tabulature, bollywood chords, ultimate guitar, yousician, guitar lessons, acoustic guitar, electric guitar, guitar tuner, 911 tabs