Guitar Tabs for Hai Makhluk Semua

(/) Slide Up  (\) Slide Down  (h) Hammer On  (p) Pull Off  (b) Bend (r) Release (v) Vibrato (x) Muted

Tabs for Song : 

Intro:
E|-----0--2-----------2-----0-----3-----------3-----5--7--5--2--------2-----0-----------------
B|--3--------------------------3-----------------------------------3--------------3-----------
G|--------------------------------------------------------------------------------------------
D|--------------------------------------------------------------------------------------------
A|--------------------------------------------------------------------------------------------
E|--------------------------------------------------------------------------------------------
   Hai makhluk semua     pujilah Tuhan kita         A        leluya      Alelu  ya      A le    lu    ya
E|-----------0--2--5-----2--5--3--2--0--2--------------------0--2--2-----2--2--2--2--------0-----------------
B|--------3--------------------------------3--------3-----------------------------------3-----3--2-----3-----
G|--2--2-----------------------------------------------------------------------------------------------------
D|-----------------------------------------------------------------------------------------------------------
A|-----------------------------------------------------------------------------------------------------------
E|-----------------------------------------------------------------------------------------------------------
   Pujilah         kea     gungan Nya   A le lu ya     A le lu ya  A     le lu ya    A le     lu    ya
E|--5--7--5--------2--5-----3--2--0-----------0--0-----0--0--0--0--0-----3--2--2--------0-----------------
B|--------------------------------------2--3-----------------------------------------3-----3--2-----3-----
G|--------------------------------------------------------------------------------------------------------
D|--------------------------------------------------------------------------------------------------------
A|--------------------------------------------------------------------------------------------------------
E|--------------------------------------------------------------------------------------------------------
    A  le lu ya   ber gaung di seluruh    du nia    soraklah       A le     lu    ya
E|--2--3--5--5-----3--2-----0--2--3--3-----2--0-----5--7--5--------2--5--3--2--0--------
B|--------------------------------------------------------------------------------3-----
G|--------------------------------------------------------------------------------------
D|--------------------------------------------------------------------------------------
A|--------------------------------------------------------------------------------------
E|--------------------------------------------------------------------------------------
    A le lu           ya    A le lu           ya    A le lu ya     A le     lu   ya
E|-----0--2-----------2-----0-----3-----------3-----5--7--5--2--------2-----0-----------------
B|--3--------------------------3-----------------------------------3--------------3-----------
G|--------------------------------------------------------------------------------------------
D|--------------------------------------------------------------------------------------------
A|--------------------------------------------------------------------------------------------
E|--------------------------------------------------------------------------------------------

Paste any tab in acousterr's tab maker and we'll play it !!!
Now supports capo and sound effects for vibrato/pull-off/hammer/bends/mutes etc !!! Checkout help section
tabs and chords, guitar tabs, music contests, music covers, songsterr, reverbnation, renditions, tabulature, bollywood chords, ultimate guitar, yousician, guitar lessons, torrins, fender, gibson, acoustic guitar, electric guitar, youtube covers, gootar, guitar tuner, A-Z tabs, 911 tabs