Guitar Tabs for Gypsy Orca Vibes

(/) Slide Up  (\) Slide Down  (h) Hammer On  (p) Pull Off  (b) Bend (r) Release (v) Vibrato (x) Muted

Tabs & Chords
BPM : 156.0
Check Track 2 for Chord Positions 

                A                          E     D     A                             E        
E|--------------0-----4--------------------------------------------0-----4-----7-----4-----9--
B|--------0--------------------------------------------0--------------------------------------
G|--------------------------6-----6--6-----7-----7-----------6--------------------------------
D|--------------------------------------------------------------------------------------------
A|--0-----------------------------------------------------------------------------------------
E|--------------------------------------------------------------------------------------------

                   A                                F#m         E                    A        
E|-----5-----------------------4-----------7--------------0-----9-----------------------------
B|-----------------0-----------------------------------------------------------------0--0-----
G|-----------7-----------6-----------6--------6-----------------------------7--7-----------6--
D|--------------------------------------------------4-----------------------------------------
A|--------------------------------------------------------------------7-----------------------
E|--------------------------------------------------------------------------------------------

                         E              A                                               E        
E|-----4-----------------9-----5--------------------4-----------------------------0-----9-----9--
B|--------------------------------------0--0-----------------------------------------------------
G|-----------6--------------------7-----------6-----------6-----6-----6--------------------------
D|-----------------4--------------------------------------------------------4--------------------
A|-----------------------------------------------------------------------------------------------
E|-----------------------------------------------------------------------------------------------

       D        
E|--------------
B|--------------
G|-----7--7-----
D|--------------
A|-----------0--
E|--------------

Guitar Tabs for Gypsy Orca Vibes






                A                          E     D     A                             E        
E|--------------0--------------------------0-----2-----0-----------------------------0--------
B|--------------2--------------------------0-----3-----2-----------------------------0--------
G|--------------2--------------------------1-----2-----2-----------------------------1--------
D|--------------2--------------------------2-----0-----2-----------------------------2--------
A|--------------0--------------------------2-----------0-----------------------------2--------
E|-----------------------------------------0-----------------------------------------0--------

                   A                                F#m         E                    A        
E|-----------------0--------------------------------2-----------0--------------------0--------
B|-----------------2--------------------------------2-----------0--------------------2--------
G|-----------------2--------------------------------2-----------1--------------------2--------
D|-----------------2--------------------------------4-----------2--------------------2--------
A|-----------------0--------------------------------4-----------2--------------------0--------
E|--------------------------------------------------2-----------0-----------------------------

                         E              A                                               E        
E|-----------------------0--------------0-----------------------------------------------0--------
B|-----------------------0--------------2-----------------------------------------------0--------
G|-----------------------1--------------2-----------------------------------------------1--------
D|-----------------------2--------------2-----------------------------------------------2--------
A|-----------------------2--------------0-----------------------------------------------2--------
E|-----------------------0--------------------------------------------------------------0--------

       D        
E|-----2--------
B|-----3--------
G|-----2--------
D|-----0--------
A|--------------
E|--------------

tabs and chords, guitar tabs, music transcription, music technology, deep learning, music information retrieval, transcribe into tabs & chords, chordify, music renditions, songsterr, reverbnation, tabulature, bollywood chords, ultimate guitar, yousician, guitar lessons, acoustic guitar, electric guitar, guitar tuner, 911 tabs