Guitar Tabs for Gymnopédie No.1 Melody

(/) Slide Up  (\) Slide Down  (h) Hammer On  (p) Pull Off  (b) Bend (r) Release (v) Vibrato (x) Muted

Tabs for Song : 
BPM : 76

Song lyrics here 
D| ----------------------------------------16-19-17-16-------------------------------------------------------------
A|-----------------------------------------------------16----16-17-------------------------------------------------
F|--------------------------------------------------------18-------16----------------------------------------------
C|--------------------------------------------------------------------------18-18----------------------------------
G|-----------------------------------------------------------------------------------------------------------------
D|-----------------------------------------------------------------------------------------------------------------

D|--16-19-17-16-------------------------------16----------------------------
A|--------------16----16-17----------16-------------------------------------
F|-----------------18-------16----------------------------------------------
C|-----------------------------------------------------16-------------------
G|--------------------------------------------------------------------------
D|--------------------------------------------------------------------------

D|-----------------14----------------------------------14-15-17-19-------14----------
A|--------------15----17-14-17-15-14-17-------------17-------------15-17----17-14-17-
F|--------16-18----------------------------------------------------------------------
C|-----------------------------------------------------------------------------------
G|-----------------------------------------------------------------------------------
D|-----------------------------------------------------------------------------------

D|--------------17-------16-------------------------------------------------------------
A|-----------17----------------------------16-17-19-16-17-19----------15-------17-------
F|--------------------------------18-16-18----------------------------------------------
C|-----------------------------------------------------------18----19-------------------
G|--------------------------------------------------------------------------------------
D|--------------------------------------------------------------------------------------

Song lyrics here 
D|------------------------------------------16-19-17-16-------------------------------------------------------------
A|-----------------------------------------------------16----16-17-------------------------------------------------
F|--------------------------------------------------------18-------16----------------------------------------------
C|--------------------------------------------------------------------------18-18----------------------------------
G|-----------------------------------------------------------------------------------------------------------------
D|-----------------------------------------------------------------------------------------------------------------

D|--16-19-17-16-------------------------------16----------------------------
A|--------------16----16-17----------16-------------------------------------
F|-----------------18-------16----------------------------------------------
C|-----------------------------------------------------16-------------------
G|--------------------------------------------------------------------------
D|--------------------------------------------------------------------------

D|-----------------14----------------------------------14-15-17-19-------14----------
A|--------------15----17-14-17-15-14-17-------------17-------------15-17----17-14-17-
F|--------16-18----------------------------------------------------------------------
C|-----------------------------------------------------------------------------------
G|-----------------------------------------------------------------------------------
D|-----------------------------------------------------------------------------------

D|--------------17-------15-------------15-14-------14----------------------------------
A|-----------17-------------------14-15-------17-15----17-15-------------15----------17-
F|--------------------------------------------------------------------------------------
C|-----------------------------------------------------------17----19-------------------
G|--------------------------------------------------------------------------------------
D|--------------------------------------------------------------------------------------

Use manual mode to free up cursor. Paste any tab in acousterr tab maker and we'll play it !!!























tabs and chords, guitar tabs, music transcription, music technology, deep learning, music information retrieval, transcribe into tabs & chords, chordify, music renditions, songsterr, reverbnation, tabulature, bollywood chords, ultimate guitar, yousician, guitar lessons, acoustic guitar, electric guitar, guitar tuner, 911 tabs