Guitar Tabs for Gullabi Aankhein Jo Teri Dekhi

(/) Slide Up  (\) Slide Down  (h) Hammer On  (p) Pull Off  (b) Bend (r) Release (v) Vibrato (x) Muted

Tabs for Song : 

Song lyrics here

Gullabi aankein jo teri dekhi sharabi ye dil ho gya.....(2 times)
E|--------------------------------------------------------------------------------------
B|--------------------------------------------------------------------------------------
G|------------4/5--5--5--4--5---5/7--4--4--2--4---4/5-----2--2--1--2---2/4--------------
D|--2--2--2-----------------------------------------------------------------------------
A|--------------------------------------------------------------------------------------
E|--------------------------------------------------------------------------------------

Dil mein mere khaab tere tasveer jaise ho deewar pe
E|-----------------------------------------------------------------------------------------
B|-----------------------------------------------------------------------------------------
G|--------1--4-----------------2--5-----------------2---4P2---4/5--4-----------------------
D|--2--------------2-----3--------------3--3--5-----------------------------5--3--5--2-----
A|-----------------------------------------------------------------------------------------
E|-----------------------------------------------------------------------------------------

Main lut gya maan ke dil ka kaha
E|-----------------------------------------------------------
B|--------------3---3/5--5--5--6--5--3-----------------3-----
G|--4--5--------------------------------------5--4--5--------
D|-----------------------------------------------------------
A|-----------------------------------------------------------
E|-----------------------------------------------------------

Main kahin ka na raha sun meri o dilruba...
E|--------------------------------------------------------------------------
B|-----3--3--5--3--------------------------------3-------------------------------
G|--------------------5--4--2--4---4/5-----5--5-----4--2--1--2---2/4--------
D|--------------------------------------------------------------------------
A|--------------------------------------------------------------------------
E|--------------------------------------------------------------------------

Again repeat from the starting..........
Song lyrics here


Paste any tab in acousterr's tab maker and we'll play it !!!
Now supports capo and sound effects for vibrato/pull-off/hammer/bends/mutes etc !!! Checkout help section
tabs and chords, guitar tabs, music contests, music covers, songsterr, reverbnation, renditions, tabulature, bollywood chords, ultimate guitar, yousician, guitar lessons, torrins, fender, gibson, acoustic guitar, electric guitar, youtube covers, gootar, guitar tuner, A-Z tabs, 911 tabs