Ukulele Tabs for Gulabi Aankhen - Fingerstyle Uke

(/) Slide Up  (\) Slide Down  (h) Hammer On  (p) Pull Off  (b) Bend (r) Release (v) Vibrato

Tabs for Song : Gulabi Aankhen Finger Style Ukulele

Gulabi aankhen jo teri dekhi
A|-----0--------------------3-----3-----3--2--3-----5-----2--
E|-----0-----0--0-----0-----0-----------------------3--------
C|-----0--------------------0-----------------------2--------
G|-----2--------------------2-----------------------0--------

Saarabi ye dil ho gaya
A|-----2--0-----2-----3-----0-----0-----------2--
E|--------------------1-----------------4-----4--
C|--------------------0-----------------------4--
G|--------------------2-----------------------0--

Now supports capo and sound effects for vibrato/pull-off/hammer/bends etc !!! Checkout help section
tabs and chords, guitar tabs, music contests, music covers, songsterr, reverbnation, renditions, tabulature, bollywood chords, ultimate guitar, yousician, guitar lessons, torrins, fender, gibson, acoustic guitar, electric guitar, youtube covers, gootar, guitar tuner, A-Z tabs, 911 tabs