Guitar Tabs for Guilty Crown

(/) Slide Up  (\) Slide Down  (h) Hammer On  (p) Pull Off  (b) Bend (r) Release (v) Vibrato (x) Muted

Tabs for Song : 

Song lyrics here
E|--------------------3-----------------------------------------------------1--3--------3--3--1--------3--1-----3-----------------1--------1--3-----------------1--------1--1-----3--------------1--------3-----1-----------------------------------------
B|--1-----------1-----------------1--------3--1-----------------4--------4-----------------------------------4--------------4--------------------4--------1--4-----------------4-----------1--4--------------------------1-----3--------------------------
G|-----------------------------------------------3--0-----------------------------------------------------------------------------------------------------------------------------------------------------------------------------------------------------
D|--------------------------------------------------------------------------------------------------------------------------------------------------------------------------------------------------------------------------------------------------------
A|--------------------------------------------------------------------------------------------------------------------------------------------------------------------------------------------------------------------------------------------------------
E|--------------------------------------------------------------------------------------------------------------------------------------------------------------------------------------------------------------------------------------------------------

E|--------------------3-----------------------------------------------------1--3--------3-----1--------3--1-----3-----------------1--------1--3-----------------1--------1--1-----3--------------1--------3-----1-----------------------------------
B|--1-----------1-----------------1--------3--1-----------------4--------4-----------------------------------4--------------4--------------------4--------1--4-----------------4-----------1--4--------------------------1-----3--------------------
G|-----------------------------------------------3--0-----------------------------------------------------------------------------------------------------------------------------------------------------------------------------------------------
D|--------------------------------------------------------------------------------------------------------------------------------------------------------------------------------------------------------------------------------------------------
A|--------------------------------------------------------------------------------------------------------------------------------------------------------------------------------------------------------------------------------------------------
E|--------------------------------------------------------------------------------------------------------------------------------------------------------------------------------------------------------------------------------------------------

E|-----1--3--------1--3--8--6--1--1-----------1-----------1--4--3--------------------------------------------------1--3--------------------
B|--4--------------------------------------------------4-----------4--4-----------4--------4--3--1--3-----------4--------------------------
G|-----------------------------------------------------------------------------------------------------------------------------------------
D|-----------------------------------------------------------------------------------------------------------------------------------------
A|-----------------------------------------------------------------------------------------------------------------------------------------
E|-----------------------------------------------------------------------------------------------------------------------------------------

E|--3--------1--3--8--6--1--1-----------1-----------1--4--3-----------------3-----------1--3-----------1--3--
B|-----------------------------------------------4-----------4--4--------------------4--------------4--------
G|-----------------------------------------------------------------------------------------------------------
D|-----------------------------------------------------------------------------------------------------------
A|-----------------------------------------------------------------------------------------------------------
E|-----------------------------------------------------------------------------------------------------------

Song lyrics here
E|--
B|--
G|--
D|--
A|--
E|--

Paste any tab in acousterr's tab maker and we'll play it !!!
Now supports capo and sound effects for vibrato/pull-off/hammer/bends/mutes etc !!! Checkout help section
tabs and chords, guitar tabs, music contests, music covers, songsterr, reverbnation, renditions, tabulature, bollywood chords, ultimate guitar, yousician, guitar lessons, torrins, fender, gibson, acoustic guitar, electric guitar, youtube covers, gootar, guitar tuner, A-Z tabs, 911 tabs