Guitar Tabs for Growing Up (lead Guitar)

(/) Slide Up  (\) Slide Down  (h) Hammer On  (p) Pull Off  (b) Bend (r) Release (v) Vibrato (x) Muted

Intro: *Clean Guitar*
E|--------------------------------------------------------------------------------------------------
B|--------------------------------------------------------------------------------------------------
G|--------------------------------------------------------------------------------------------------
D|--------9-----------9-----------9-----------9-----------9-----------9-----------9-----------9-----
A|-----7-----7-----7-----7-----7-----7-----7-----7-----7-----7-----7-----7-----7-----7-----7-----7--
E|--0-----------0-----------0-----------0-----------0-----------0-----------0-----------0-----------
Verse 1: *Clean Guitar*
Maybe one day I'll learn to forgive myself,
E|--------------------------------------------------------------------------------------------------
B|--------------------------------------------------------------------------------------------------
G|--------------------------------------------------------------------------------------------------
D|--------9-----------9-----------9-----------9-----------9-----------9-----------9-----------9-----
A|-----7-----7-----7-----7-----7-----7-----7-----7-----6-----6-----6-----6-----6-----6-----6-----6--
E|--0-----------0-----------0-----------0-----------0-----------0-----------0-----------0-----------
Until then I'll just wallow in my misery,
E|--------------------------------------------------------------------------------------------------
B|--------------------------------------------------------------------------------------------------
G|--------------------------------------------------------------------------------------------------
D|--------9-----------9-----------9-----------9-----------9-----------9-----------9-----------9-----
A|-----7-----7-----7-----7-----7-----7-----7-----7-----6-----6-----6-----6-----6-----6-----6-----6--
E|--0-----------0-----------0-----------0-----------0-----------0-----------0-----------0-----------
I'll drown my sorrows in sex and alcohol,
E|--------------------------------------------------------------------------------------------------
B|--------------------------------------------------------------------------------------------------
G|--------------------------------------------------------------------------------------------------
D|--------9-----------9-----------9-----------9-----------9-----------9-----------9-----------9-----
A|-----7-----7-----7-----7-----7-----7-----7-----7-----6-----6-----6-----6-----6-----6-----6-----6--
E|--0-----------0-----------0-----------0-----------0-----------0-----------0-----------0-----------
I'd give anytrhing to feel a thing at all,
E|--------------------------------------------------------------------------------------------------
B|--------------------------------------------------------------------------------------------------
G|--------------------------------------------------------------------------------------------------
D|--------7-----------7-----------7-----------7-----------7-----------7-----------7-----------7-----
A|-----5-----5-----5-----5-----5-----5-----5-----5-----4-----4-----4-----4-----4-----4-----4-----4--
E|--0-----------0-----------0-----------0-----------0-----------0-----------0-----------0-----------
I'm caught between a hard place and growing up,
E|--------------------------------------------------0-----
B|--------------------------------------------------0-----
G|--6-----6--6--6--6--6--6--4-----4--4--4--4--4--4--2-----
D|--6-----6--6--6--6--6--6--4-----4--4--4--4--4--4--2-----
A|--4-----4--4--4--4--4--4--2-----2--2--2--2--2--2--0-----
E|--------------------------------------------------0-----

Verse 2: *Clean Guitar Or Overdrive Guitar, Come In When Vocals Do*
This is the last time I swear
E|--------------------------------------------------------------------------------------------------
B|--------------------------------------------------------------------------------------------------
G|--------------------------------------------------------------------------------------------------
D|--------9-----------9-----------9-----------9-----------9-----------9-----------9-----------9-----
A|-----7-----7-----7-----7-----7-----7-----7-----7-----6-----6-----6-----6-----6-----6-----6-----6--
E|--0-----------0-----------0-----------0-----------0-----------0-----------0-----------0-----------
I wish I could take back the things I did,
E|--------------------------------------------------------------------------------------------------
B|--------------------------------------------------------------------------------------------------
G|--------------------------------------------------------------------------------------------------
D|--------9-----------9-----------9-----------9-----------9-----------9-----------9-----------9-----
A|-----7-----7-----7-----7-----7-----7-----7-----7-----6-----6-----6-----6-----6-----6-----6-----6--
E|--0-----------0-----------0-----------0-----------0-----------0-----------0-----------0-----------
I've changed oh cross my heart and hope to be dead,
E|--------------------------------------------------------------------------------------------------
B|--------------------------------------------------------------------------------------------------
G|--------------------------------------------------------------------------------------------------
D|--------9-----------9-----------9-----------9-----------9-----------9-----------9-----------9-----
A|-----7-----7-----7-----7-----7-----7-----7-----7-----6-----6-----6-----6-----6-----6-----6-----6--
E|--0-----------0-----------0-----------0-----------0-----------0-----------0-----------0-----------
But truth be told I didn't mean a word I said,
E|--------------------------------------------------------------------------------------------------
B|--------------------------------------------------------------------------------------------------
G|--------------------------------------------------------------------------------------------------
D|--------7-----------7-----------7-----------7-----------7-----------7-----------7-----------7-----
A|-----5-----5-----5-----5-----5-----5-----5-----5-----4-----4-----4-----4-----4-----4-----4-----4--
E|--0-----------0-----------0-----------0-----------0-----------0-----------0-----------0-----------

Pre-Chorus 1: *Overdrive Guitar*
I've made my mistakes and I'll make them again,
E|-----------------------------------------------------------------------------------------------------------
B|-----------------------------------------------------------------------------------------------------------
G|--6-----6--6--6--6--6--6-----4-----4--4--4--4--4--4-----2-----2--2--2--2--2--2-----2-----2--2--2--2--2--2--
D|--6-----6--6--6--6--6--6-----4-----4--4--4--4--4--4-----2-----2--2--2--2--2--2-----2-----2--2--2--2--2--2--
A|--4-----4--4--4--4--4--4-----2-----2--2--2--2--2--2-----0-----0--0--0--0--0--0-----0-----0--0--0--0--0--0--
E|-----------------------------------------------------------------------------------------------------------
I guess I'm just far too resigned to change,
E|-----------------------------------------------------------------------------------------------------------
B|-----------------------------------------------------------------------------------------------------------
G|--6-----6--6--6--6--6--6-----4-----4--4--4--4--4--4-----2-----2--2--2--2--2--2-----2-----2--2--2--2--2--2--
D|--6-----6--6--6--6--6--6-----4-----4--4--4--4--4--4-----2-----2--2--2--2--2--2-----2-----2--2--2--2--2--2--
A|--4-----4--4--4--4--4--4-----2-----2--2--2--2--2--2-----0-----0--0--0--0--0--0-----0-----0--0--0--0--0--0--
E|-----------------------------------------------------------------------------------------------------------

Chorus 1: *Overdrive Guitar*
I wish that I could be a better man,
E|--------------------------------------------------------------------------------------------------
B|--------------------------------------------------------------------------------------------------
G|--------------------------------------------------2-----2--2--2--2--2--2--2--2--2--2--2--2--2--2--
D|--2-----2--2--2--2--2--2--2--2--2--2--2--2--2--2--2-----2--2--2--2--2--2--2--2--2--2--2--2--2--2--
A|--2-----2--2--2--2--2--2--2--2--2--2--2--2--2--2--0-----0--0--0--0--0--0--0--0--0--0--0--0--0--0--
E|--0-----0--0--0--0--0--0--0--0--0--0--0--0--0--0--------------------------------------------------
I wish that I could be who you deserve,
E|--------------------------------------------------------------------------------------------------
B|--------------------------------------------------------------------------------------------------
G|--6-----6--6--6--6--6--6--6--6--6--6--6--6--6--6--2-----2--2--2--2--2--2--2--2--2--2--2--2--2--2--
D|--6-----6--6--6--6--6--6--6--6--6--6--6--6--6--6--2-----2--2--2--2--2--2--2--2--2--2--2--2--2--2--
A|--4-----4--4--4--4--4--4--4--4--4--4--4--4--4--4--0-----0--0--0--0--0--0--0--0--0--0--0--0--0--0--
E|--------------------------------------------------------------------------------------------------
Maybe eventually I'll change,
E|--------------------------------------------------------------------------------------------------
B|--------------------------------------------------------------------------------------------------
G|--------------------------------------------------2-----2--2--2--2--2--2--2--2--2--2--2--2--2--2--
D|--2-----2--2--2--2--2--2--2--2--2--2--2--2--2--2--2-----2--2--2--2--2--2--2--2--2--2--2--2--2--2--
A|--2-----2--2--2--2--2--2--2--2--2--2--2--2--2--2--0-----0--0--0--0--0--0--0--0--0--0--0--0--0--0--
E|--0-----0--0--0--0--0--0--0--0--0--0--0--0--0--0--------------------------------------------------
But I wouldn't hold your breath,
I'm not holding mine,
E|--------------------------------------------------------------------------------------------------
B|--------------------------------------------------------------------------------------------------
G|--6-----6--6--6--6--6--6--6--6--6--6--6--6--6--6--2-----2--2--2--2--2--2--2--2--2--2--2--2--2--2--
D|--6-----6--6--6--6--6--6--6--6--6--6--6--6--6--6--2-----2--2--2--2--2--2--2--2--2--2--2--2--2--2--
A|--4-----4--4--4--4--4--4--4--4--4--4--4--4--4--4--0-----0--0--0--0--0--0--0--0--0--0--0--0--0--0--
E|--------------------------------------------------------------------------------------------------
I'm almost out of time to grow up,
E|--------------------------------------------------------------------------------------------------
B|--------------------------------------------------------------------------------------------------
G|--4-----4--4--4--4--4--4--2-----2--2--2--2--2--2--------------------------------------------------
D|--4-----4--4--4--4--4--4--2-----2--2--2--2--2--2--2-----2--2--2--2--2--2--2--2--2--2--2--2--2--2--
A|--2-----2--2--2--2--2--2--0-----0--0--0--0--0--0--2-----2--2--2--2--2--2--2--2--2--2--2--2--2--2--
E|--------------------------------------------------0-----0--0--0--0--0--0--0--0--0--0--0--0--0--0--

E|--------------------------------------------------
B|--------------------------------------------------
G|--------------------------------------------------
D|--2-----2--2--2--2--2--2--2--2--2--2--2--2--2--2--
A|--2-----2--2--2--2--2--2--2--2--2--2--2--2--2--2--
E|--0-----0--0--0--0--0--0--0--0--0--0--0--0--0--0--

Verse 3: *Clean Guitar*
I'm scare to die but terrified to live,
E|--------------------------------------------------------------------------------------------------
B|--------------------------------------------------------------------------------------------------
G|--------------------------------------------------------------------------------------------------
D|--6--6--6--6--6--6--6--6--7--7--7--9--9--9--9--9--------------------------7--7--7--6--6--6--------
A|--------------------------------------------------9--9--9--9--9--9--9--9--------------------9--9--
E|--------------------------------------------------------------------------------------------------
Don't worry about me I swear I'm fine,
E|--------------------------------------------------------------------------------------------------
B|--------------------------------------------------------------------------------------------------
G|--------------------------------------------------------------------------------------------------
D|--6--6--6--6--6--6--6--6--7--7--7--9--9--9--9--9--------------------------7--7--7--6--6--6--------
A|--------------------------------------------------9--9--9--9--9--9--9--9--------------------9--9--
E|--------------------------------------------------------------------------------------------------
I say to you through a text as I'm holding back tears,
E|--------------------------------------------------------------------------------------------------
B|--------------------------------------------------------------------------------------------------
G|--------------------------------------------------------------------------------------------------
D|--6--6--6--6--6--6--6--6--7--7--7--9--9--9--9--9--------------------------7--7--7--6--6--6--------
A|--------------------------------------------------9--9--9--9--9--9--9--9--------------------9--9--
E|--------------------------------------------------------------------------------------------------
But then again I've been this way for years,
E|--------------------------------------------------------------------------------------------------
B|--------------------------------------------------------------------------------------------------
G|--------------------------------------------------------------------------------------------------
D|--------------------------6--6--6-----------6--6--------------------------------------------------
A|--7--7--7--7--7--7--7--7-----------9--9--9--------7--7--7--7--7--7--7--7--7--7--7--9--9--9--7--7--
E|--------------------------------------------------------------------------------------------------

Pre-Chorus 2: *Overdrive Guitar*
So I'll keep blaming myself for problems that aren't my fault,
E|-----------------------------------------------------------------------------------------------------------
B|-----------------------------------------------------------------------------------------------------------
G|--6-----6--6--6--6--6--6-----4-----4--4--4--4--4--4-----2-----2--2--2--2--2--2-----2-----2--2--2--2--2--2--
D|--6-----6--6--6--6--6--6-----4-----4--4--4--4--4--4-----2-----2--2--2--2--2--2-----2-----2--2--2--2--2--2--
A|--4-----4--4--4--4--4--4-----2-----2--2--2--2--2--2-----0-----0--0--0--0--0--0-----0-----0--0--0--0--0--0--
E|-----------------------------------------------------------------------------------------------------------
And I'll keep blaming you for the ones that are,
E|-----------------------------------------------------------------------------------------------------------
B|-----------------------------------------------------------------------------------------------------------
G|--6-----6--6--6--6--6--6-----4-----4--4--4--4--4--4-----2-----2--2--2--2--2--2-----2-----2--2--2--2--2--2--
D|--6-----6--6--6--6--6--6-----4-----4--4--4--4--4--4-----2-----2--2--2--2--2--2-----2-----2--2--2--2--2--2--
A|--4-----4--4--4--4--4--4-----2-----2--2--2--2--2--2-----0-----0--0--0--0--0--0-----0-----0--0--0--0--0--0--
E|-----------------------------------------------------------------------------------------------------------

Chorus 2: *Overdrive/Distorted Guitar*
I wish that I could be a better man,
I wish that I could be who you deserve,
E|-----------------------------------------------------------------------------------
B|-----------9--7--------------------9--7--------------9--7--------------------9--7--
G|--------9--------9--------------9-----------------9--------9--------------9--------
D|-----9--------------9--------9-----------------9--------------9--------9-----------
A|--7--------------------9--7-----------------7--------------------9--7--------------
E|-----------------------------------------------------------------------------------
Maybe eventually I'll change,
But I wouldn't hold your breath,
I'm not holding mine,
E|-----------------------------------------------------------------------------------
B|-----------9--7--------------------9--7--------------9--7--------------------9--7--
G|--------9--------9--------------9-----------------9--------9--------------9--------
D|-----9--------------9--------9-----------------9--------------9--------9-----------
A|--7--------------------9--7-----------------7--------------------9--7--------------
E|-----------------------------------------------------------------------------------
I'm almost out of time to grow up,
E|--------------------------------------------------------------------------------------------------
B|--------------------------------------------------------------------------------------------------
G|--4-----4--4--4--4--4--4--2-----2--2--2--2--2--2--------------------------------------------------
D|--4-----4--4--4--4--4--4--2-----2--2--2--2--2--2--2-----2--2--2--2--2--2--2--2--2--2--2--2--2--2--
A|--2-----2--2--2--2--2--2--0-----0--0--0--0--0--0--2-----2--2--2--2--2--2--2--2--2--2--2--2--2--2--
E|--------------------------------------------------0-----0--0--0--0--0--0--0--0--0--0--0--0--0--0--

Bridge/Solo: *Overdrive/Distorted Guitar*
E|--------------------------------------------------------------------------------------
B|--------------------------------------------------------------------------------------
G|--10-10-10h12-12-12-12h14-14-14p12-12-12p10-10-10-10h12-12-12-12h14-14-14p12-12-12p10-
D|--------------------------------------------------------------------------------------
A|--------------------------------------------------------------------------------------
E|--------------------------------------------------------------------------------------

E|--------------------------------------------------------------------------------------
B|--------------------------------------------------------------------------------------
G|--10-10-10h12-12-12-12h14-14-14h15-15-15-15-15p14-14-14p12-12-12p10-10-10p9--9---9h10-
D|--------------------------------------------------------------------------------------
A|--------------------------------------------------------------------------------------
E|--------------------------------------------------------------------------------------

E|-----------------------------------------------------------------------------
B|-----------------------------------------------------------------------------
G|--15-15-15-14-14-14-12-12-15-15-15-14-14-14-12-12-------------------------12-
D|--------------------------------------------------15-15-15-14-14-14-15-15----
A|-----------------------------------------------------------------------------
E|-----------------------------------------------------------------------------

Chorus 3: *Overdrive/Distorted Guitar*
I wish that I could be a better man, (That I could be a better man)
E|--------------------------------------------------------------------------------------------------
B|--------------------------------------------------------------------------------------------------
G|--------------------------------------------------3-----3--3--3--3--3--3--3--3--3--3--3--3--3--3--
D|--3-----3--3--3--3--3--3--3--3--3--3--3--3--3--3--3-----3--3--3--3--3--3--3--3--3--3--3--3--3--3--
A|--3-----3--3--3--3--3--3--3--3--3--3--3--3--3--3--1-----1--1--1--1--1--1--1--1--1--1--1--1--1--1--
E|--1-----1--1--1--1--1--1--1--1--1--1--1--1--1--1--------------------------------------------------
I wish that I could be who you deserve, (Be who you deserve)
E|--------------------------------------------------------------------------------------------------
B|--------------------------------------------------------------------------------------------------
G|--7-----7--7--7--7--7--7--7--7--7--7--7--7--7--7--3-----3--3--3--3--3--3--3--3--3--3--3--3--3--3--
D|--7-----7--7--7--7--7--7--7--7--7--7--7--7--7--7--3-----3--3--3--3--3--3--3--3--3--3--3--3--3--3--
A|--5-----5--5--5--5--5--5--5--5--5--5--5--5--5--5--1-----1--1--1--1--1--1--1--1--1--1--1--1--1--1--
E|--------------------------------------------------------------------------------------------------
Maybe eventually I'll chnage, (Maybe eventually)
E|--------------------------------------------------------------------------------------------------
B|--------------------------------------------------------------------------------------------------
G|--------------------------------------------------3-----3--3--3--3--3--3--3--3--3--3--3--3--3--3--
D|--3-----3--3--3--3--3--3--3--3--3--3--3--3--3--3--3-----3--3--3--3--3--3--3--3--3--3--3--3--3--3--
A|--3-----3--3--3--3--3--3--3--3--3--3--3--3--3--3--1-----1--1--1--1--1--1--1--1--1--1--1--1--1--1--
E|--1-----1--1--1--1--1--1--1--1--1--1--1--1--1--1--------------------------------------------------
But I wouldn't hold your breath, (Hold your breath)
I'm not holding mine,
E|--------------------------------------------------------------------------------------------------
B|--------------------------------------------------------------------------------------------------
G|--7-----7--7--7--7--7--7--7--7--7--7--7--7--7--7--3-----3--3--3--3--3--3--3--3--3--3--3--3--3--3--
D|--7-----7--7--7--7--7--7--7--7--7--7--7--7--7--7--3-----3--3--3--3--3--3--3--3--3--3--3--3--3--3--
A|--5-----5--5--5--5--5--5--5--5--5--5--5--5--5--5--1-----1--1--1--1--1--1--1--1--1--1--1--1--1--1--
E|--------------------------------------------------------------------------------------------------
I'm almost out of time,
I'm losing my damn mind,
E|--------------------------------------------------------------------------------------------------
B|--------------------------------------------------------------------------------------------------
G|--5-----5--5--5--5--5--5--3-----3--3--3--3--3--3--5-----5--5--5--5--5--5--3-----3--3--3--3--3--3--
D|--5-----5--5--5--5--5--5--3-----3--3--3--3--3--3--5-----5--5--5--5--5--5--3-----3--3--3--3--3--3--
A|--3-----3--3--3--3--3--3--1-----1--1--1--1--1--1--3-----3--3--3--3--3--3--1-----1--1--1--1--1--1--
E|--------------------------------------------------------------------------------------------------
Almost out of time,
To grow up...
E|--------------------------------------------------------------------------------------------------------------------------
B|--------------------------------------------------------------------------------------------------------------------------
G|--5-----5--5--5--5--5--5--3-----3--3--3--3--3--3--3--3--3--3--3--3--3--3--3--3--3--3--3--3--3--3--3--3--3--3--3--3--3-----
D|--5-----5--5--5--5--5--5--3-----3--3--3--3--3--3--3--3--3--3--3--3--3--3--3--3--3--3--3--3--3--3--3--3--3--3--3--3--3--3--
A|--3-----3--3--3--3--3--3--1-----1--1--1--1--1--1--1--1--1--1--1--1--1--1--1--1--1--1--1--1--1--1--1--1--1--1--1--1--1--3--
E|-----------------------------------------------------------------------------------------------------------------------1--
tabs and chords, guitar tabs, music transcription, music technology, deep learning, music information retrieval, transcribe into tabs & chords, chordify, music renditions, songsterr, reverbnation, tabulature, bollywood chords, ultimate guitar, yousician, guitar lessons, acoustic guitar, electric guitar, guitar tuner, 911 tabs