Guitar Tabs for Grow

Tabs for Song : Grow - Jesse Walton

Capo 2nd Fret

Section 1

D|-----------------------0-----------------------------------------------0-----------------------------------------------0-----------------------------------------------0--------------------------
B|--------------5-----------------------5-----------------------5-----------------------5-----------------------7-----------------------7-----------------------7-----------------------7-----------
G|--------0--------0--------------0--------0-----0--------0--------0--------------0--------0-----0--------0--------0--------------0--------0-----0--------0--------0--------------0--------0-----0--
D|-----5-----5--------5--------5-----5--------5--------5-----5--------5--------5-----5--------5--------7-----7--------7--------7-----7--------7--------7-----7--------7--------7-----7--------7-----
G|--5-----------------------5-----------------------5-----------------------5-----------------------7-----------------------7-----------------------7-----------------------7-----------------------
D|--------------------------------------------------------------------------------------------------------------------------------------------------------------------------------------------------


Section 2

D|--------------------------------------0-----------
B|--------------8--------7--------------------------
G|--------0--------0--------------0-----------0-----
D|-----9-----9--------9--------7-----7-----7-----7--
G|--9-----------------------7-----------------------
D|--------------------------------------------------

Section 3

D|-----------------------0-----------------------------------------------0-----------------------------------------------0-----------------------------------------------0-----------------------------------------------------------------------
B|--------------5-----------------------5-----------------------5-----------------------5-----------------------3-----------------------3-----------------------1-----------------------1-----------------------0---------0/1---------1/3--------
G|--------0--------0--------------0--------0-----0--------0--------0--------------0--------0-----0--------0--------0--------------0--------0-----0--------0--------0--------------0--------0-----0--------0--------0-----------0-----------0-----
D|-----5-----5--------5--------5-----5--------5--------5-----5--------5--------5-----5--------5--------4-----4--------4--------4-----4--------4--------2-----2--------2--------2-----2--------2--------0-----0--------0-----------0-----------0--
G|--5-----------------------5-----------------------5-----------------------5-----------------------4-----------------------4-----------------------2-----------------------2-----------------------0--------------------------------------------
D|-----------------------------------------------------------------------------------------------------------------------------------------------------------------------------------------------------------------------------------------------

Ending

D|-----------------------0-----------------------------------------------0-----------------------------------
B|--------------5-----------------------5-----------------------4-----------------------4--------------------
G|--------0--------0--------------0--------0-----0--------0--------0--------------0--------0-----0--------0--
D|-----5-----5--------5--------5-----5--------5--------5-----5--------5--------5-----5--------5--------0-----
G|--5-----------------------5-----------------------5-----------------------5-----------------------0--------
D|-----------------------------------------------------------------------------------------------------------



Guitar Tabs for Grow






E|--
B|--
G|--
D|--
A|--
E|--




E|--
B|--
G|--
D|--
A|--
E|--



E|--
B|--
G|--
D|--
A|--
E|--

Guitar Tabs for Grow






E|--
B|--
G|--
D|--
A|--
E|--




E|--
B|--
G|--
D|--
A|--
E|--



E|--
B|--
G|--
D|--
A|--
E|--

tabs and chords, guitar tabs, music transcription, music technology, deep learning, music information retrieval, transcribe into tabs & chords, chordify, music renditions, songsterr, reverbnation, tabulature, bollywood chords, ultimate guitar, yousician, guitar lessons, acoustic guitar, electric guitar, guitar tuner, 911 tabs