Guitar Tabs for Greenhouse Heat Death

(/) Slide Up  (\) Slide Down  (h) Hammer On  (p) Pull Off  (b) Bend (r) Release (v) Vibrato (x) Muted

Tabs for Song : 
BPM : 122

Heat death, Bake rot...
E|-----------------------
B|---0h2-----2------3p2--
G|--------4--------------
D|-----------------------
A|-----------------------
E|-----------------------

My house is green... 
E|-----------------------------
B|-----------------------------
G|-----------------------------
D|--4--4--4--4--4--4--4--4--4--
A|--4--4--4--4--4--4--4--4--4--
E|--2--2--2--2--2--2--2--2--2--

E|-----------------------
B|-----------------------
G|-----1--2-----1--------
D|--4--------4-----2--4--
A|-----------------------
E|-----------------------

You know what I mean...
E|-----------------------------
B|-----------------------------
G|-----------------------------
D|--4--4--4--4--4--4--4--4--4--
A|--4--4--4--4--4--4--4--4--4--
E|--2--2--2--2--2--2--2--2--2--

E|-----------------------
B|-----------------------
G|-----1--2-----1--------
D|--4--------4-----2--4--
A|-----------------------
E|-----------------------

Come meet me inside...
E|--------------------------------------------------
B|--------------------------------------------------
G|--4--4--4--4--------------------------------------
D|--4--4--4--4--7--7--6--6--4--4--4--4--4--4--4--4--
A|--2--2--2--2--7--7--6--6--4--4--4--4--4--4--4--4--
E|--------------5--5--4--4--2--2--2--2--2--2--2--2--


Use manual mode to free up cursor. Paste any tab in acousterr tab maker and we'll play it !!!
tabs and chords, guitar tabs, music transcription, music technology, deep learning, music information retrieval, transcribe into tabs & chords, chordify, music renditions, songsterr, reverbnation, tabulature, bollywood chords, ultimate guitar, yousician, guitar lessons, acoustic guitar, electric guitar, guitar tuner, 911 tabs