Guitar Tabs for Green Day - Boulevard Of Broken Dreams

Green Day - Boulevard Of Broken Dreams

CAPO in 1st Fret

1st Verse

(Em)           (G)
   I walk a lonely road
   
    (D)             (A)                 (Em)
The only one that I have ever known

            (G)
Don't know where it goes

 (D)               (A)
But its home to me and I walk alone

Bridge

(Em7)  (G)  (D)  (A4(7))

2nd Verse

(Em7)             (G6)
    I walk this empty street
    
(D)            (A4)                   (Em7)
On the boulevard of broken dreams

           (G6)
Where the city sleeps

    (D)            (A4(7))            (Em7)  (G)
And I'm the only one and I walk alone

Pre-Chorus

(D)          (A4(7))        (Em7)  (G)
  I walk alone I walk alone
(D)           (A4(7))     (G6/B)
  I walk alone I walk a

Chorus

(C9)      (G5)    (D5(9))          (Em7(9))
   My shadows only one that walks beside me
   
(C9)      (G5)      (D5(9))           (Em7(9))
   My shallow hearts the only thing that's beating
   
(C9)      (G5)      (D5(9))            (Em7(9))
   Sometimes I wish someone up there will find me
   
(C9)        (G5)      (B7)
   Till then I'll walk alone

Pos-Chorus

(Em7)  (G6)  (D5(9))  (A4)  (2x)

3rd Verse

(Em7)              (G6)
    I'm walking down the line
    
  *(D5(9))          (A4)           (Em7)
That divides me somewhere in my mind

        (G)          (D5(9))
On the border line of the edge

     (A4(7))
And were I walk alone

Bridge

(Em7)  (G)  (D)  (A4(7))

4th Verse

(Em7)          (G)                  (D5(9))
    Read between the lines of what's
    
              (A4)                (Em7)
Fucked up and every things all right

          (G)               (D5(9))          (A4(7))
Check my vital signs to know I'm still alive

                 (Em7)  (G)
And I walk alone

Pre-Chorus

(D)          (A4(7))            (Em7)  (G)
  I walk alone I walk alone

(D)          (A5)         (G6/B)
  I walk alone I walk a

Chorus

(C9)      (G5)    (D5(9))          (Em7(9))
   My shadows only one that walks beside me
   
(C9)      (G5)      (D5(9))           (Em7(9))
   My shallow hearts the only thing that's beating
   
(C9)      (G5)      (D5(9))            (Em7(9))
   Sometimes I wish someone up there will find me
   
(C9)      (G5)     (B7)
   Till then I'll walk alone

Pos-Chorus

(Em7)  (G)  (D)  (A4(7)) (G6/B)

(Em7)  (G)  (D)      (A4(7))    (G6/B)
          I walk alone I walk a

Guitar Solo

 (C9)  (G)  (D)  (Em7(9))  (3x)
 
 (C9)  (G)  (B11)

5th Verse

(Em7)             (G)
    I walk this empty street
    
(D)            (A4)                (Em7)
On the boulevard of broken dreams

           (G)
Where the city sleeps

    (D)            (A4(7))
And I'm the only one and I walk

Chorus

(C9)      (G5)    (D5(9))          (Em7(9))
   My shadows only one that walks beside me
   
(C9)      (G5)      (D5(9))        (Em7(9))
   My shallow hearts the only thing that's beating
   
(C9)      (G5)      (D5(9))         (Em7(9))
   Sometimes I wish someone up there will find me
   
(C9)        (G5)       (B7)
   Till then I'll walk alone

Outro

(E5)  (C7M)  (D6(9))  (A9/C#)  (G6)  (B7)  (2x)

(E5)  (C7M)  (D6(9))  (A9/C#)  (G6)  (Em)

----------------------------------------------------------------------------------------
Chords

   (A)      (A4)   (A4(7))    (A5)
E|--0--------0--------0-----------
B|--2--------3--------3-----------
G|--2--------2--------0--------2--
D|--2--------2--------2--------2--
A|--0--------0--------0--------0--
E|--------------------------------

     (A9/C#)  (B11)   (B11/D#)  (B7)
E|--------------2-----------------2--
B|-----0--------5--------5--------4--
G|-----2--------4--------4--------2--
D|-----2--------4--------5--------4--
A|-----4--------2--------4--------2--
E|-----------------------------------

     (C7M) (C9)   (D) (D5(9)) 
E|-----------3-----2--------
B|-----0-----3-----3--------
G|-----0-----5-----2-----8--
D|-----2-----5-----0-----6--
A|-----3-----3-----------4--
E|--------------------------

 (D6(9)) (E5)     (Em)    (Em7)
E|--0--------------0--------0--
B|--0--------------0--------3--
G|--2--------------0--------0--
D|--4-----2--------2--------2--
A|--5-----2--------2--------2--
E|--------0--------0--------0--

  (Em7(9))  (G)      (G5)     (G6)    (G6/B)
E|-----------3-----------------------------
B|--7--------0-----------------3--------4--
G|--7--------0-----------------4--------6--
D|--5--------0--------4--------2--------4--
A|--7--------2--------4-----------------4--
E|-----------3--------2--------3--------6--


tabs and chords, guitar tabs, music transcription, music technology, deep learning, music information retrieval, transcribe into tabs & chords, chordify, music renditions, songsterr, reverbnation, tabulature, bollywood chords, ultimate guitar, yousician, guitar lessons, acoustic guitar, electric guitar, guitar tuner, 911 tabs