Guitar Tabs for Trash Bags 45

|-----------------------------------2-----------2--------------------------3--3--3----------------------
E|-----------------------------------------------------------------------------------------------------
B|--------------------------------3-----------3-----3--------------1--1--1--3--3--3--------------------
G|-----------0-----------0-----2-----------2-----------2-----------2--2--2--4--4--4-----------0--------
D|--------2-----------2-----0-----------0-----------------2--2--2--2--2--2--5--5--5--------2-----------
A|-----2-----------2--------------------------------------2--2--2-----------5--5--5-----2--------------
E|--0-----------0-----------------------------------------------------------3--3--3--0-----------------

E|-----------------------------------2-----------2--2--------------2--2-----
B|--------------------------------3-----------3--------3--------3--------3--
G|-----------2-----------2-----2-----------2-----------------2--------------
D|--------0-----------0-----0-----------0-----------------0-----------------
A|-----0-----------0--------------------------------------------------------
E|--2-----------2-----------------------------------------------------------




Paste any tab in acousterr's tab maker and we'll play it !!!
Now supports capo and sound effects for vibrato/pull-off/hammer/bends/mutes etc !!! Checkout help section
tabs and chords, guitar tabs, music transcription, music technology, deep learning, music information retrieval, transcribe into tabs & chords, chordify, music renditions, songsterr, reverbnation, tabulature, bollywood chords, ultimate guitar, yousician, guitar lessons, acoustic guitar, electric guitar, guitar tuner, 911 tabs