Great Egypt - Sedro - Guitar Tabs

Guitar 2 (rythem)
    
                                                                                                                                                                                                                                                                                                                                                                                                                                                                                                                                                                                                 
E|-------------------------------|
B|-------------------------------|
G|-------------------------------|
D|--2--------2--2--5--------5--5-|
A|--2--2--2--2--2--5--5--5--5--5-|
E|--0--0--0--0--0--3--3--3--3--3-|

    
                                                                                                                                                                                                                                                                                                                                                                                                                                                                                                                                                                                                                                                                                                                                                                                                                                                                                                                                                                                                                                                                                                                                                                                              
E|-------------------------------|-----------------------------|
B|-------------------------------|-----------------------------|
G|-------------------------------|-----------------------------|
D|--2--------2--2--5--------7--7-|4--------4--4--7--------7--7-|
A|--2--2--2--2--2--5--5--5--7--7-|4--4--4--4--4--7--7--7--7--7-|
E|--0--0--0--0--0--3--3--3--5--5-|2--2--2--2--2--5--5--5--5--5-|

    
                                                                                                                                                                                                                                                                                                                                                                                                                                                                                                                                                                                                                                                                                                                                                                                                                                                                                                                                                                                                                                                                                                                                                                                              
E|----------------------------|-----------------------------|
B|----------------------------|-----------------------------|
G|----------------------------|-----------------------------|
D|--4--------4--4--2--4--5--7-|2--------2--2--5--------5--5-|
A|--4--4--4--4--4--2--4--5--7-|2--2--2--2--2--5--5--5--5--5-|
E|--2--2--2--2--2--0--2--3--5-|0--0--0--0--0--3--3--3--3--3-|

    
                                                                                                                                                                                                                                                                                                                                                                                                                                                                                                                                                                                                                                                                                                                                                                                                                                                                                                                                                                                                                                                                                                                                                                                              
E|-------------------------------|-----------------------------|
B|-------------------------------|-----------------------------|
G|-------------------------------|-----------------------------|
D|--2--------2--2--5--------7--7-|4--------4--4--7--------7--7-|
A|--2--2--2--2--2--5--5--5--7--7-|4--4--4--4--4--7--7--7--7--7-|
E|--0--0--0--0--0--3--3--3--5--5-|2--2--2--2--2--5--5--5--5--5-|

    
                                                                                                                                                                                                                                                                                                                                                                                                                                                                                                                                                                                                                                                                                                                                                                                                                                                                                                                                                                                                                                                                                                                                                                                              
E|----------------------------|-----------------------------|
B|----------------------------|-----------------------------|
G|----------------------------|-----------------------------|
D|--4--------4--4--2--4--5--7-|2--------2--2--5--------5--5-|
A|--4--4--4--4--4--2--4--5--7-|2--2--2--2--2--5--5--5--5--5-|
E|--2--2--2--2--2--0--2--3--5-|0--0--0--0--0--3--3--3--3--3-|

    
                                                                                                                                                                                                                                                                                                                                                                                                                                                                                                                                                                                                                                                                                                                                                                                                                                                                                                                                                                                                                                                                                                                                                                                              
E|-------------------------------|-----------------------------|
B|-------------------------------|-----------------------------|
G|-------------------------------|-----------------------------|
D|--2--------2--2--5--------7--7-|4--------4--4--7--------7--7-|
A|--2--2--2--2--2--5--5--5--7--7-|4--4--4--4--4--7--7--7--7--7-|
E|--0--0--0--0--0--3--3--3--5--5-|2--2--2--2--2--5--5--5--5--5-|

    
                                                                                                                                                                                                                                                                                                                                                                                                                                                                                                                                                                                                                                                                                                                                                                                                                                                                                                                                                                                                                                                                                                                                                                                              
E|----------------------------|-----------------------------|
B|----------------------------|-----------------------------|
G|----------------------------|-----------------------------|
D|--4--------4--4--2--4--5--7-|2--------2--2--5--------5--5-|
A|--4--4--4--4--4--2--4--5--7-|2--2--2--2--2--5--5--5--5--5-|
E|--2--2--2--2--2--0--2--3--5-|0--0--0--0--0--3--3--3--3--3-|

    
                                                                                                                                                                                                                                                                                                                                                                                                                                                                                                                                                                                                                                                                                                                                                                                                                                                                                                                                                                                                                                                                                                                                                                                              
E|-------------------------------|-----------------------------|
B|-------------------------------|-----------------------------|
G|-------------------------------|-----------------------------|
D|--2--------2--2--5--------7--7-|4--------4--4--7--------7--7-|
A|--2--2--2--2--2--5--5--5--7--7-|4--4--4--4--4--7--7--7--7--7-|
E|--0--0--0--0--0--3--3--3--5--5-|2--2--2--2--2--5--5--5--5--5-|

    
                                                                                                                                                                                                                                                                                                                                                                                                                                                                                                                                                                                                                                                                                                                                                                                                                                                                                                                                                                                                                                                                                                                                                                                              
E|----------------------------|--------------------------------------|
B|----------------------------|--------------------------------------|
G|----------------------------|--------------------------------------|
D|--4--------4--4--2--4--5----|------2--------2--------------------2-|
A|--4--4--4--4--4--2--4--5----|2--2--2--2--2--2--2--2--2--2--2--2--2-|
E|--2--2--2--2--2--0--2--3----|0--0--0--0--0--0--0--0--0--0--0--0--0-|

    
                                                                                                                                                                                                                                                                                                                                                                                                                                                                                                                                                                                                                                                                                                                                                                                                                                                                                                                                                                                                                                                                                                                                                                                              
E|----------------------------------------|--------------------------------------|
B|----------------------------------------|--------------------------------------|
G|----------------------------------------|--------------------------------------|
D|--------5--------5----------------------|------4--------4--------------------4-|
A|--5--5--5--5--5--5-----------0--2--3--2-|4--4--4--4--4--4--4--4--4--4--4--4--4-|
E|--3--3--3--3--3--3--0--1--3-------------|2--2--2--2--2--2--2--2--2--2--2--2--2-|

    
                                                                                                                                                                                                                                                                                                                                                                                                                                                                                                                                                                                                                                                                                                                                                                                                                                                                                                                                                                                                                                                                                                                                                                                              
E|----------------------------------------|--------------------------------------|
B|----------------------------------------|--------------------------------------|
G|----------------------------------------|--------------------------------------|
D|--------7--------7--------------------7-|------2--------2--------------------2-|
A|--7--7--7--7--7--7-----------2--3--5--7-|2--2--2--2--2--2--2--2--2--2--2--2--2-|
E|--5--5--5--5--5--5--3--5--7-----------5-|0--0--0--0--0--0--0--0--0--0--0--0--0-|

    
                                                                                                                                                                                                                                                                                                                                                                                                                                                                                                                                                                                                                                                                                                                                                                                                                                                                                                                                                                                                                                                                                                                                                                                              
E|----------------------------------------|--------------------------------------|
B|----------------------------------------|--------------------------------------|
G|----------------------------------------|--------------------------------------|
D|--------5--------5----------------------|------4--------4--------------------4-|
A|--5--5--5--5--5--5-----------0--2--3--2-|4--4--4--4--4--4--4--4--4--4--4--4--4-|
E|--3--3--3--3--3--3--0--1--3-------------|2--2--2--2--2--2--2--2--2--2--2--2--2-|

    
                                                                                                                                                                                                                                                                                                                                                                                                                                                                                                                                                                                                                                                                                                                                                                                                                                                                                                                                                                                                                                                                                                                                                                                              
E|----------------------------------------|--------------------------------------|
B|----------------------------------------|--------------------------------------|
G|----------------------------------------|--------------------------------------|
D|--------7--------7--------------------7-|------2--------2--------------------2-|
A|--7--7--7--7--7--7-----------2--3--5--7-|2--2--2--2--2--2--2--2--2--2--2--2--2-|
E|--5--5--5--5--5--5--3--5--7-----------5-|0--0--0--0--0--0--0--0--0--0--0--0--0-|

    
                                                                                                                                                                                                                                                                                                                                                                                                                                                                                                                                                                                                                                                                                                                                                                                                                                                                                                                                                                                                                                                                                                                                                                                              
E|----------------------------------------|--------------------------------------|
B|----------------------------------------|--------------------------------------|
G|----------------------------------------|--------------------------------------|
D|--------5--------5----------------------|------4--------4--------------------4-|
A|--5--5--5--5--5--5-----------0--2--3--2-|4--4--4--4--4--4--4--4--4--4--4--4--4-|
E|--3--3--3--3--3--3--0--1--3-------------|2--2--2--2--2--2--2--2--2--2--2--2--2-|

    
                                                                                                                                                                                                                                                                                                                                                                                                                                                                                                                                                                                                                                                                                                                                                                                                                                                                                                                                                                                                                                                                                                                                                                                              
E|----------------------------------------|--------------------------------------|
B|----------------------------------------|--------------------------------------|
G|----------------------------------------|--------------------------------------|
D|--------7--------7--------------------7-|------2--------2--------------------2-|
A|--7--7--7--7--7--7-----------2--3--5--7-|2--2--2--2--2--2--2--2--2--2--2--2--2-|
E|--5--5--5--5--5--5--3--5--7-----------5-|0--0--0--0--0--0--0--0--0--0--0--0--0-|

    
                                                                                                                                                                                                                                                                                                                                                                                                                                                                                                                                                                                                                                                                                                                                                                                                                                                                                                                                                                                                                                                                                                                                                                                              
E|----------------------------------------|--------------------------------------|
B|----------------------------------------|--------------------------------------|
G|----------------------------------------|--------------------------------------|
D|--------5--------5----------------------|------4--------4--------------------4-|
A|--5--5--5--5--5--5-----------0--2--3--2-|4--4--4--4--4--4--4--4--4--4--4--4--4-|
E|--3--3--3--3--3--3--0--1--3-------------|2--2--2--2--2--2--2--2--2--2--2--2--2-|

    
                                                                                                                                                                                                                                                                                                                                                                                                                                                                                                                                                                                                                                                                                                                                                                                                                                                                                                                                                                                                                                                                                                                                                                                              
E|----------------------------------------|--------------------------------------|
B|----------------------------------------|--------------------------------------|
G|----------------------------------------|--------------------------------------|
D|--------7--------7--------------------7-|------2--------2--------------------2-|
A|--7--7--7--7--7--7-----------2--3--5--7-|2--2--2--2--2--2--2--2--2--2--2--2--2-|
E|--5--5--5--5--5--5--3--5--7-----------5-|0--0--0--0--0--0--0--0--0--0--0--0--0-|

    
                                                                                                                                                                                                                                                                                                                                                                                                                                                                                                                                                                                                                                                                                                                                                                                                                                                                                                                                                                                                                                                                                                                                                                                              
E|----------------------------------------|--------------------------------------|
B|----------------------------------------|--------------------------------------|
G|----------------------------------------|--------------------------------------|
D|--------5--------5----------------------|------4--------4--------------------4-|
A|--5--5--5--5--5--5-----------0--2--3--2-|4--4--4--4--4--4--4--4--4--4--4--4--4-|
E|--3--3--3--3--3--3--0--1--3-------------|2--2--2--2--2--2--2--2--2--2--2--2--2-|

    
                                                                                                                                                                                                                                                                                                                                                                                                                                                                                                                                                                                                                                                                                                                                                                                                                                                                                                                                                                                                                                                                                                                                                                                              
E|----------------------------------------|-----------------------|
B|----------------------------------------|-----------------------|
G|----------------------------------------|-----------------------|
D|--------7--------7--------------------7-|-----------------------|
A|--7--7--7--7--7--7-----------2--3--5--7-|2--2--2--2--2--2--2--2-|
E|--5--5--5--5--5--5--3--5--7-----------5-|0--0--0--0--0--0--0--0-|

    
                                                                                                                                                                                                                                                                                                                                                                                                                                                                                                                                                                                                                                                                                                                                                                                                                                                                                                                                                                                                                                                                                                                                                                                              
E|-------------------------|-----------------------|
B|-------------------------|-----------------------|
G|-------------------------|-----------------------|
D|-------------------------|-----------------------|
A|--2--2--2--2--2--2--2--2-|5--5--5--5--5--5--5--5-|
E|--0--0--0--0--0--0--0--0-|3--3--3--3--3--3--3--3-|

    
                                                                                                                                                                                                                                                                                                                                                                                                                                                                                                                                                                                                                                                                                                                                                                                                                                                                                                                                                                                                                                                                                                                                                                                              
E|-------------------------|-----------------------|
B|-------------------------|-----------------------|
G|-------------------------|-----------------------|
D|-------------------------|-----------------------|
A|--4--4--4--4--4--4--4--4-|2--2--2--2--2--2--2--2-|
E|--2--2--2--2--2--2--2--2-|0--0--0--0--0--0--0--0-|

    
                                                                                                                                                                                                                                                                                                                                                                                                                                                                                                                                                                                                                                                                                                                                                                                                                                                                                                                                                                                                                                                                                                                                                                                              
E|-------------------------|-----------------------|
B|-------------------------|-----------------------|
G|-------------------------|-----------------------|
D|-------------------------|-----------------------|
A|--2--2--2--2--2--2--2--2-|5--5--5--5--5--5--5--5-|
E|--0--0--0--0--0--0--0--0-|3--3--3--3--3--3--3--3-|

    
                                                                                                                                                                                                                                                                                                                                                                                                                                                                                                                                                                                                                                                                                                                                                                                                                                                                                                                                                                                                                                                                                                                                                                                              
E|-------------------------|-----------------------------------------------|
B|-------------------------|-----------------------------------------------|
G|-------------------------|-----------------------------------------------|
D|-------------------------|2--------2--------2--------2--------2--2-------|
A|--4--4--4--4--4--4--4--4-|2--2-----2--2-----2--2-----2--2-----2--2--2--2-|
E|--2--2--2--2--2--2--2--2-|0--0--x--0--0--x--0--0--x--0--0--x--0--0--0--0-|

    
                                                                                                                                                                                                                                                                                                                                                                                                                                                                                                                                                                                                                                                                                                                                                                                                                                                                                                                                                                                                                                                                                                                                                                                              
E|-------------------------------------------------|-----------------------------------------------|
B|-------------------------------------------------|-----------------------------------------------|
G|-------------------------------------------------|-----------------------------------------------|
D|--2--------2--------2--------2--------2--2-------|5--------5--------5--------5--------5--5-------|
A|--2--2-----2--2-----2--2-----2--2-----2--2--2--2-|5--5-----5--5-----5--5-----5--5-----5--5--5--5-|
E|--0--0--x--0--0--x--0--0--x--0--0--x--0--0--0--0-|3--3--x--3--3--x--3--3--x--3--3--x--3--3--3--3-|

    
                                                                                                                                                                                                                                                                                                                                                                                                                                                                                                                                                                                                                                                                                                                                                                                                                                                                                                                                                                                                                                                                                                                                                                                              
E|-------------------------------------------------|-----------------------------------------------|
B|-------------------------------------------------|-----------------------------------------------|
G|-------------------------------------------------|-----------------------------------------------|
D|--4--------4--------4--------4--------4--4-------|2--------2--------2--------2--------2--2-------|
A|--4--4-----4--4-----4--4-----4--4-----4--4--4--4-|2--2-----2--2-----2--2-----2--2-----2--2--2--2-|
E|--2--2--x--2--2--x--2--2--x--2--2--x--2--2--2--2-|0--0--x--0--0--x--0--0--x--0--0--x--0--0--0--0-|

    
                                                                                                                                                                                                                                                                                                                                                                                                                                                                                                                                                                                                                                                                                                                                                                                                                                                                                                                                                                                                                                                                                                                                                                                              
E|-------------------------------------------------|-----------------------------------------------|
B|-------------------------------------------------|-----------------------------------------------|
G|-------------------------------------------------|-----------------------------------------------|
D|--2--------2--------2--------2--------2--2-------|5--------5--------5--------5--------5--5-------|
A|--2--2-----2--2-----2--2-----2--2-----2--2--2--2-|5--5-----5--5-----5--5-----5--5-----5--5--5--5-|
E|--0--0--x--0--0--x--0--0--x--0--0--x--0--0--0--0-|3--3--x--3--3--x--3--3--x--3--3--x--3--3--3--3-|

    
                                                                                                                                                                                                                                                                                                                                                                                                                                                                                                                                                                                                                                                                                                                                                                                                                                                                                                                                                                                                                                                                                                                                                                                              
E|-------------------------------------------------|-----------------------------------------------|
B|-------------------------------------------------|-----------------------------------------------|
G|-------------------------------------------------|-----------------------------------------------|
D|--4--------4--------4--------4--------4--4-------|2--------2--------2--------2--------2--2-------|
A|--4--4-----4--4-----4--4-----4--4-----4--4--4--4-|2--2-----2--2-----2--2-----2--2-----2--2--2--2-|
E|--2--2--x--2--2--x--2--2--x--2--2--x--2--2--2--2-|0--0--x--0--0--x--0--0--x--0--0--x--0--0--0--0-|

    
                                                                                                                                                                                                                                                                                                                                                                                                                                                                                                                                                                                                                                                                                                                                                                                                                                                                                                                                                                                                                                                                                                                                                                                              
E|-------------------------------------------------|-----------------------------------------------|
B|-------------------------------------------------|-----------------------------------------------|
G|-------------------------------------------------|-----------------------------------------------|
D|--2--------2--------2--------2--------2--2-------|5--------5--------5--------5--------5--5-------|
A|--2--2-----2--2-----2--2-----2--2-----2--2--2--2-|5--5-----5--5-----5--5-----5--5-----5--5--5--5-|
E|--0--0--x--0--0--x--0--0--x--0--0--x--0--0--0--0-|3--3--x--3--3--x--3--3--x--3--3--x--3--3--3--3-|

    
                                                                                                                                                                                                                                                                                                                                                                                                                                                                                                                                                                                                                                                                                                                                                                                                                                                                                                                                                                                                                                                                                                                                                                                              
E|-------------------------------------------------|-----------------------------------------------|
B|-------------------------------------------------|-----------------------------------------------|
G|-------------------------------------------------|-----------------------------------------------|
D|--4--------4--------4--------4--------4--4-------|2--------2--------2--------2--------2--2-------|
A|--4--4-----4--4-----4--4-----4--4-----4--4--4--4-|2--2-----2--2-----2--2-----2--2-----2--2--2--2-|
E|--2--2--x--2--2--x--2--2--x--2--2--x--2--2--2--2-|0--0--x--0--0--x--0--0--x--0--0--x--0--0--0--0-|

    
                                                                                                                                                                                                                                                                                                                                                                                                                                                                                                                                                                                                                                                                                                                                                                                                                                                                                                                                                                                                                                                                                                                                                                                              
E|-------------------------------------------------|-----------------------------------------------|
B|-------------------------------------------------|-----------------------------------------------|
G|-------------------------------------------------|-----------------------------------------------|
D|--2--------2--------2--------2--------2--2-------|5--------5--------5--------5--------5--5-------|
A|--2--2-----2--2-----2--2-----2--2-----2--2--2--2-|5--5-----5--5-----5--5-----5--5-----5--5--5--5-|
E|--0--0--x--0--0--x--0--0--x--0--0--x--0--0--0--0-|3--3--x--3--3--x--3--3--x--3--3--x--3--3--3--3-|
tabs and chords, guitar tabs, music transcription, music technology, deep learning, music information retrieval, transcribe into tabs & chords, chordify, music renditions, songsterr, reverbnation, tabulature, bollywood chords, ultimate guitar, yousician, guitar lessons, acoustic guitar, electric guitar, guitar tuner, 911 tabs