Guitar Tabs for Great Are You Lord (key A)

(/) Slide Up  (\) Slide Down  (h) Hammer On  (p) Pull Off  (b) Bend (r) Release (v) Vibrato (x) Muted

Tabs for Song : Great are you Lord (Key A)

Intro:
E|-----------------------
B|-----------------------
G|-----------------------
D|--4--6--7--0--9--11-9--
A|-----------------------
E|-----------------------

Verse 1: (Swell)
E|--2--2-----
B|--3--2-----
G|--2--2--1--
D|-----4--2--
A|-----4--2--
E|-----2-----

Chorus:
E|--9-----9--9-----9--------
B|--9--------9--------12-9--
G|--9--11----9--11----------
D|--------------------------
A|--------------------------
E|--------------------------
Go into (intro) after lick

Verse 2:
E|-----------------14-
B|-----------2--14----
G|-----2--2-----------
D|--4-----------------
A|--------------------
E|--------------------

Bridge:
E|-----------------
B|--10-5--3--2--3--
G|-----------------
D|-----------------
A|-----------------
E|-----------------

Paste any tab in acousterr's tab maker and we'll play it !!!
Now supports capo and sound effects for vibrato/pull-off/hammer/bends/mutes etc !!! Checkout help section
tabs and chords, guitar tabs, music transcription, music technology, deep learning, music information retrieval, transcribe into tabs & chords, chordify, music renditions, songsterr, reverbnation, tabulature, bollywood chords, ultimate guitar, yousician, guitar lessons, acoustic guitar, electric guitar, guitar tuner, 911 tabs