Guitar Tabs for Gravity Falls Intro

BPM : 500


E|-----1-----------1----------|1-----------1----------|0-----------0----------|0-----------0----------|
B|--------3-----3-----3-----3-|---1-----1-----1-----1-|---2-----2-----2-----2-|---2-----2-----2-----2-|
G|-----------2-----------2----|------2-----------2----|------2-----------2----|------2-----------2----|
D|----------------------------|-----------------------|-----------------------|-----------------------|
A|----------------------------|-----------------------|-----------------------|-----------------------|
E|----------------------------|-----------------------|-----------------------|-----------------------|


E|-----------------0--------1-|---------------5--------3-----5-|-----------------|---------------0----|
B|--3-------------------------|--------------------------------|-----------------|---3----------------|
G|----------------------------|--------------------------------|---5-------------|--------------------|
D|----------------------------|--------------------------------|-----------------|--------------------|
A|----------------------------|--------------------------------|-----------------|--------------------|
E|----------------------------|--------------------------------|-----------------|--------------------|


E|--1-----------0-|---------3-----------5----|---3--------1----|------1-----1-----1----|
B|----------------|--------------------------|-----------------|-----------------------|
G|----------------|--------------------------|-----------------|-----------------------|
D|----------------|--------------------------|-----------------|-----------------------|
A|----------------|--------------------------|-----------------|-----------------------|
E|----------------|--------------------------|-----------------|-----------------------|


E|-----5-----5-----3-----1----|------5-----5-----5----|---3-----5-----3-----1----|------1-----1-----1-|
B|----------------------------|-----------------------|--------------------------|--------------------|
G|----------------------------|-----------------------|--------------------------|--------------------|
D|----------------------------|-----------------------|--------------------------|--------------------|
A|----------------------------|-----------------------|--------------------------|--------------------|
E|----------------------------|-----------------------|--------------------------|--------------------|


E|-----5-----5-----3-----1----|------5-----5-----5----|------9-----9-----9----|--------------------|
B|----------------------------|-----------------------|-----------------------|--------------------|
G|----------------------------|-----------------------|-----------------------|---10----10----10---|
D|----------------------------|-----------------------|-----------------------|--------------------|
A|----------------------------|-----------------------|-----------------------|--------------------|
E|----------------------------|-----------------------|-----------------------|--------------------|


E|----------------------|--------------------|---------------8-|------------------9-|
B|--10----10----8-------|------11----11----11|---10------------|------10------------|
G|--------------------10|--------------------|-----------------|--------------------|
D|----------------------|--------------------|-----------------|--------------------|
A|----------------------|--------------------|-----------------|--------------------|
E|----------------------|--------------------|-----------------|--------------------|


E|--------5--8--------5--8--10|--------------|
B|-----6-----------5----------|--------------|
G|--7-----------6-------------|---------7----|
D|----------------------------|--------------|
A|----------------------------|--------------|
E|----------------------------|--------------|
tabs and chords, guitar tabs, music transcription, music technology, deep learning, music information retrieval, transcribe into tabs & chords, chordify, music renditions, songsterr, reverbnation, tabulature, bollywood chords, ultimate guitar, yousician, guitar lessons, acoustic guitar, electric guitar, guitar tuner, 911 tabs