Bass Tabs for Goodbye Goodbye

G|-----------------------------------------------------------------------------------------
D|-----------7--8--7-----------------7--8--7-----------------------------------------0-----
A|-----7--10----------10-7-----7--10----------10-7-----3--5--7-----3--5--7-----0--3--------
E|--8-----------------------8-----------------------5-----------5-----------1-----------3--



G|--------------------------------------------------------------------------------------------------------------------------------------------------------------------------------------------------
D|-----------7--8--7-----------------7--8--7-----------------------------------------0-----------2-----------7--8--7-----------5--7--9--------------------------------------------------------------
A|-----7--10----------10-7-----7--10----------10-7-----3--5--7-----3--5--7-----0--3--------2--5--------7--10----------10-7--7--------------3--5--7--------------------------------------------------
E|--8-----------------------8-----------------------5-----------5-----------1-----------3-----------8-----------------------------------5-----------1--1--1--1--1--1--1--1--1--1--1--1--1--1--1--1--



G|-----------------------------------------
D|-----------7-----5-----------3-----------
A|-----7--10----7--------3--5--------2--3--
E|--8-----------------5-----------3--------



G|--------------------------------------------------------------------------------------------------------------------------------------------------------------------------------------------------
D|-----------7--8--7-----------------7--8--7-----------------------------------------0-----------2-----------7--8--7-----------5--7--9--------------------------------------------------------------
A|-----7--10----------10-7-----7--10----------10-7-----3--5--7-----3--5--7-----0--3--------2--5--------7--10----------10-7--7--------------3--5--7--------------------------------------------------
E|--8-----------------------8-----------------------5-----------5-----------1-----------3-----------8-----------------------------------5-----------1--1--1--1--1--1--1--1--1--1--1--1--1--1--1--1--



G|-----------------------------------------
D|-----------7-----5-----------3-----------
A|-----7--10----7--------3--5--------2--3--
E|--8-----------------5-----------3--------



G|--------------------------------------------------------------------------------------------------------------------------------------------------------------------------------------------------
D|-----------7--8--7-----------------7--8--7-----------------------------------------0-----------2-----------7--8--7-----------5--7--9--------------------------------------------------------------
A|-----7--10----------10-7-----7--10----------10-7-----3--5--7-----3--5--7-----0--3--------2--5--------7--10----------10-7--7--------------3--5--7--------------------------------------------------
E|--8-----------------------8-----------------------5-----------5-----------1-----------3-----------8-----------------------------------5-----------1--1--1--1--1--1--1--1--1--1--1--1--1--1--1--1--



G|-----------------------------------------
D|-----------7-----5-----------3-----------
A|-----7--10----7--------3--5--------2--3--
E|--8-----------------5-----------3--------



G|-----------------------------------------------
D|-----------------------------------------------
A|-----------2--3--------------2--3--5--7--6--7--
E|-----3--5-----------5--0--5--------------------



G|-----------------------------------------------------------------------------------------
D|-----------7--8--7-----------------7--8--7-----------------------------------------0-----
A|-----7--10----------10-7-----7--10----------10-7-----3--5--7-----3--5--7-----0--3--------
E|--8-----------------------8-----------------------5-----------5-----------1-----------3--



G|--------------------------------------------------------------------------------------------------------------------------------------------------------------------------------------------------------------------------------------------------
D|-----------7--8--7-----------------7--8--7-----------------------------------------0-----------2-----------7--8--7-----------5--7--9--------------------------------------------------------------------------------------------------------------
A|-----7--10----------10-7-----7--10----------10-7-----3--5--7-----3--5--7-----0--3--------2--5--------7--10----------10-7--7--------------3--5--7--------------------------------------------------------------------------------------------------
E|--8-----------------------8-----------------------5-----------5-----------1-----------3-----------8-----------------------------------5-----------1--1--1--1--1--1--1--1--1--1--1--1--1--1--1--1--1--1--1--1--1--1--1--1--1--1--1--1--1--1--1--1--



G|-----------------------------------------
D|-----------7-----5-----------3-----------
A|-----7--10----7--------3--5--------2--3--
E|--8-----------------5-----------3--------




G|--------------------------------------------------
D|-----------7--8--7-----------------7-----7-----9--
A|-----7--10----------10-7-----7--10----8-----10----
E|--8-----------------------8-----------------------


tabs and chords, guitar tabs, music transcription, music technology, deep learning, music information retrieval, transcribe into tabs & chords, chordify, music renditions, songsterr, reverbnation, tabulature, bollywood chords, ultimate guitar, yousician, guitar lessons, acoustic guitar, electric guitar, guitar tuner, 911 tabs