Guitar Tabs for Random

(/) Slide Up  (\) Slide Down  (h) Hammer On  (p) Pull Off  (b) Bend (r) Release (v) Vibrato (x) Muted

Tabs for Song : 

Song lyrics go here
E|-----------------------------------------------------------------
B|-----------------------------------------------------------------
G|-----------------------------------------------------------------
D|-----------------------------------------------------------------
A|--3--5--3--------3--5-----------3--5--3--------3--5--------------
E|------------5\3--------6------------------5\3--------6-----------

E|--------------0-----------------------------0--------------------
B|--------1--------------------1--------1--------------------1-----
G|-----0-----0-----------0-----------0-----0-----------0-----------
D|--------------------2-----2-----------------------2-----2--------
A|--3--------------3--------------3--------------3--------------3--
E|-----------------------------------------------------------------

E|--------------------5--5--5-----------------------5--5--5--
B|--------------------5--5--5-----------------------5--5--5--
G|------------8\7-----6--6--6---------------8\7-----6--6--6--
D|--8--5--8-----------7--7--7-----8--5--8-----------7--7--7--
A|--------------------7--7--7--3--------------------7--7--7--
E|--------------------5--5--5-----------------------5--5--5--

E|-----------------------------------------
B|-----------------------------------------
G|------------6\8------------------6\8-----
D|--------7--------------------7-----------
A|-----7--------------------7--------------
E|--5--------------------5-----------------

E|--------------0-----------------------------0--------------------
B|--------1--------------------1--------1--------------------1-----
G|-----0-----0-----------0-----------0-----0-----------0-----------
D|--------------------2-----2-----------------------2-----2--------
A|--3--------------3--------------3--------------3--------------3--
E|-----------------------------------------------------------------

E|-----------------------------------------
B|-----------------------------------------
G|------------6\8------------------6\8-----
D|--------7--------------------7-----------
A|-----7--------------------7--------------
E|--5--------------------5-----------------

E|--------------------------------------------------------------------------------
B|--------------------------------------------------------------------------------
G|--------------------------------------------------------------------------------
D|--------------------------------------------------------------------------------
A|--3--5--3--------3--5-----------3--5--3--------3--5--------------3-----5-----3--
E|------------5\3--------6------------------5\3--------6-----3--5-----------------


tabs and chords, guitar tabs, music contests, music covers, songsterr, reverbnation, renditions, tabulature, bollywood chords, ultimate guitar, yousician, guitar lessons, torrins, fender, gibson, acoustic guitar, electric guitar, youtube covers, gootar, guitar tuner, A-Z tabs, 911 tabs