Guitar Tabs for Golden Wip

(/) Slide Up  (\) Slide Down  (h) Hammer On  (p) Pull Off  (b) Bend (r) Release (v) Vibrato (x) Muted

Tabs for Song : 

Song lyrics here
E|--------------------------------------------------------------------------------------------------------------------------------------------------
B|-----------0-----------------0-----------------0-----------------------------------1-----------------1-----------------1--------------------------
G|--------1-----1-----------1-----1-----------1-----1-----------1--------1--------0-----0-----------0-----0-----------2-----2-----------2--------2--
D|-----2-----------2-----2-----------2-----2-----------2-----2--------2--------2-----------2-----2-----------2-----2-----------2-----2--------2-----
A|--2-----------------2-----------------2-----------------2--------2--------3-----------------3-----------------0-----------------0--------0--------
E|--------------------------------------------------------------------------------------------------------------------------------------------------

Song lyrics here
E|--7--------------5--7--------------5--7--------8--------10-------8--------7--------------5--7--------------5--7--------3--------5--------0--
B|--------------------------------------------------------------------------------------------------------------------------------------------
G|--------------------------------------------------------------------------------------------------------------------------------------------
D|--------------------------------------------------------------------------------------------------------------------------------------------
A|--------------------------------------------------------------------------------------------------------------------------------------------
E|--------------------------------------------------------------------------------------------------------------------------------------------

Paste any tab in acousterr's tab maker and we'll play it !!!
Now supports capo and sound effects for vibrato/pull-off/hammer/bends/mutes etc !!! Checkout help section

Guitar Tabs for Golden Wip





E|--
B|--
G|--
D|--
A|--
E|--


E|--
B|--
G|--
D|--
A|--
E|--

tabs and chords, guitar tabs, music transcription, music technology, deep learning, music information retrieval, transcribe into tabs & chords, chordify, music renditions, songsterr, reverbnation, tabulature, bollywood chords, ultimate guitar, yousician, guitar lessons, acoustic guitar, electric guitar, guitar tuner, 911 tabs