Guitar Tabs for Gold Medal Ribbon

(/) Slide Up  (\) Slide Down  (h) Hammer On  (p) Pull Off  (b) Bend (r) Release (v) Vibrato (x) Muted

Tabs for Song : 

Song lyrics here
C|-----------5--7--9-----------------9--7--------7--------------7--12----------------------------------------9v-9v-9--7--9--7--5--4--------
G|--7v-7v-7---------------9/10-9--7---------9/10----------------------10--9h10-12--5h7--7--5--5--7--9--10-12-------------------------7--5--
E|--------------------9-----------------------------9--------9-----------------------------------------------------------------------------
B|------------------------------------------------------9/11-------------------------------------------------------------------------------
F|-----------------------------------------------------------------------------------------------------------------------------------------
B|-----------------------------------------------------------------------------------------------------------------------------------------

C|--------------------------------------------------------------------------------------------------
G|--------------------------------------------------------------------------------------------------
E|-----------4-----------4-----------4-----------------------4-----------4--------------------------
B|--4--6--7-----4--6--7-----------7-----------------4--6--7-----4--6--7-----------------------7--6--
F|--------------------------7--4--------7--4--2--0--------------------------7--4--2--0--7--4--------
B|--------------------------------------------------------------------------------------------------

C|-----------------------------
G|--10-9--7--------------------
E|-----------9--7--6--7--9--6--
B|-----------------------------
F|-----------------------------
B|-----------------------------

C|--12-12-
G|--12-12-
E|--13-14-
B|--14-14-
F|--12-12-
B|--------

C|--------------------
G|--------------------
E|--7-----------------
B|--7--0--2---2/-4\2--
F|--5--0--2-----------
B|-----0--2-----------

C|-----------------------------------------------------
G|-----------14-12-10-9-----------------14-12-10-9-----
E|--11-13-14-------------9--11-11-13-14-------------9--
B|-----------------------------------------------------
F|-----------------------------------------------------
B|-----------------------------------------------------

Song lyrics here
C|--
G|--
E|--
B|--
F|--
B|--

Paste any tab in acousterr's tab maker and we'll play it !!!
Now supports capo and sound effects for vibrato/pull-off/hammer/bends/mutes etc !!! Checkout help section
tabs and chords, guitar tabs, music transcription, music technology, deep learning, music information retrieval, transcribe into tabs & chords, chordify, music renditions, songsterr, reverbnation, tabulature, bollywood chords, ultimate guitar, yousician, guitar lessons, acoustic guitar, electric guitar, guitar tuner, 911 tabs