Guitar Tabs for Godfather Theme

(/) Slide Up  (\) Slide Down  (h) Hammer On  (p) Pull Off  (b) Bend (r) Release (v) Vibrato (x) Muted

Tabs for Song : 

Song lyrics here
E|--------0-----3-----2-----0-----3-----0-----2-----0--------------------
B|--0-----------------3-----------------------3-----1-----1-----3-----0--
G|--------------------2-----------------------2-----------------------0--
D|--------------------0-----------------------0-----------------------2--
A|--0--------------------------------------------------------------------
E|--------------------------------------------------------------------0--

Song lyrics here
E|--------------0-----3-----2-----0-----3-----0-----2-----0--------------------------------------------2-----------------------------------------------------------------------------------------------------------------------------------------------------------------------------------
B|--------0-----------------3-----------------------3-----1-----0-----------1--------------1-----4-----1--------------1-----4-----------------------3-----1-----0-----3-----0-----1-----0-----0-----------------------------3-----1-----0-----3-----0-----1-----0-----0-----4--------------
G|--------------------------2-----------------------2-----2-----------3-----2--------2-----------------2--------2-----------------0-----------0-----------2-----------------------2-----------------------------------0-----------2-----------------------2-----------------------0v-------
D|--------------------------0-----------------------0-----------------------0-----------------------------------------------------2-----2-----------------2-----------------------2-----------------1-----2-----2-----------------2-----------------------2-----------------------2v-------
A|--------0-----------------------------------------------------------------0-----------------------------------------------------2-----------------------0-----------------------0-----------------------------0-----------------0-----------------------0-----------------------2v-------
E|--------------------------------------------------------------------------------------------------------------------------------0-----------------------------------------------------------------------------------------------------------------------------------------------0v-------

Paste any tab in acousterr's tab maker and we'll play it !!!
Now supports capo and sound effects for vibrato/pull-off/hammer/bends/mutes etc !!! Checkout help section
tabs and chords, guitar tabs, music transcription, music technology, deep learning, music information retrieval, transcribe into tabs & chords, chordify, music renditions, songsterr, reverbnation, tabulature, bollywood chords, ultimate guitar, yousician, guitar lessons, acoustic guitar, electric guitar, guitar tuner, 911 tabs