Guitar Tabs for God Rest Ye Merry Gentlemen

(/) Slide Up  (\) Slide Down  (h) Hammer On  (p) Pull Off  (b) Bend (r) Release (v) Vibrato (x) Muted

Tabs for Song : 

Song lyrics here
E|--------------------------------------------------------------------------------------------------
B|--------0--0-----------------------------0--------------0--0-----------------------------0--------
G|--------------2--0-----------------0--------------------------2--0-----------------0--------------
D|--0--2--------------4-----0--2--4-----7-----------2--2--------------4-----0--2--4-----7-----------
A|-----------------------7-----------------6-----------------------------7-----------------6--------
E|-----0-----------------------0-----------------------0-----------------------0--------------------

E|--------------------0--------------------0--------------------------------------------------------
B|--0--------0-----3-----0-----------------0--------------0-----1--0--0-----------------------------
G|-----5--------5-----------2--0--------0--2---------0h2--------2--0--0--2--0--------0--------2-----
D|--------7-----------------------2--4-----2--------------------2--2--2--------4--2-----4-----0-----
A|-----0-----------------------------5-----3-----------------------------------------------7--------
E|-----------------3-----2-----0--------------------------0-----------------------------------------

E|-----------------0-----------2--0--------------0--0--7--7--5--3--2--0-----0--2--3--5--7--------
B|--------0--1--3-----0--------0--0--------------------------------------3-----------------------
G|---0h2-----------------2--0--2--0--------------------------------------------------------------
D|-----------------------------1--2--------------------5--5--4--2--0-----------0--2--4--5--------
A|-----------0--2--3-----------2--2-----------------------------------3--2--3--------------------
E|--------3-----------3--2--0-----0--------------0--0--------------------------------------------

E|---0--0--7--7--5--3--2--0-----0--2--3--5--7-------------------------0--------------------0----
B|---------------------------3------------------------0--------0-----3-----0-----------------0--
G|-------------------------------------------------------5--------5-----------2--0--------0--2--
D|---------5--5--4--2--0-----------0--2--4--5---------------7-----------------------2--4-----2--
A|------------------------3--2--3------------------------0-----------------------------5-----3--
E|---0--0------------------------------------------------------------3-----2-----0--------------



E|-----------------------------------------------------------------0-----------2--0------
B|--------0-----1--0--0-----------------------------------0--1--3-----0--------0--0------
G|---0h2--------2--0--0--2--0--------0--------2------0h2-----------------2--0--2--0------
D|--------------2--2--2--------4--2-----4-----0--------------------------------1--2------
A|-----------------------------------------7-----------------0--2--3-----------2--2------
E|--------0-----------------------------------------------3-----------3--2--0-----0------

E|--0--0--7-----7-----5-----3-----2-----0-----------0-----2-----3-----5-----7--------
B|-----------0-----0-----0-----0-----0-----0--3--------0-----0-----0-----0-----------
G|-----------------------------------------------0-----------------------------------
D|--------5-----5-----4-----2-----0-----------------------0-----2-----4-----5--------
A|--------------------------------------3-----2-----3--------------------------------
E|--0--0-----------------------------------------------------------------------------

E|----0--0--7-----7-----5-----3-----2-----0-----------0-----2-----3-----5-----7--------
B|-------------0-----0-----0-----0-----0-----0--3--------0-----0-----0-----0-----------
G|-------------------------------------------------0-----------------------------------
D|----------5-----5-----4-----2-----0-----------------------0-----2-----4-----5--------
A|----------------------------------------3-----2-----3--------------------------------
E|----0--0-----------------------------------------------------------------------------

E|--------0-----0-----0-----0-----0-----0-----0-----0-----0--------------------0--------
B|--0--------------0-----------------5-----0--------------------0-----0--------0--------
G|-----5-----------------5-----7-----------------2-----0-----------------0-----2--------
D|-----------7-----------------------------------------------2-----4-----------2--------
A|-----------------------------------------------------------------------------3--------
E|--------------------------------------------------------------------------------------

E|---------------------------------------------------------------------0-----------2--0------
B|-------------0-----1--0--0----------------------------------0--1--3-----0--------0--0------
G|------0h2----------2--0--0--2--0--------0--------2----0h2------------------2--0--2--0------
D|-------------------2--2--2--------4--2-----4-----0-------------------------------1--2------
A|----------------------------------------------7----------------0--2--3-----------2--2------
E|-------------0----------------------------------------------3-----------3--2--0-----0------

E|-------------------------------------------------------------------------------------------------
B|----------0--0-----------------------------0--------------0--0-----------------------------0-----
G|----------------2--0-----------------0--------------------------2--0-----------------0-----------
D|----0--2--------------4-----0--2--4-----7-----------2--2--------------4-----0--2--4-----7--------
A|-------------------------7-----------------6-----------------------------7-----------------6-----
E|-------0-----------------------0-----------------------0-----------------------0-----------------

E|----------------------0--------------------0-----------------------------------------------------
B|----0--------0-----3-----0-----------------0--------------0-----1--0--0--------------------------
G|-------5--------5-----------2--0--------0--2-------0h2----------2--0--0--2--0--------0--------2--
D|----------7-----------------------2--4-----2--------------------2--2--2--------4--2-----4-----0--
A|-------0-----------------------------5-----3-----------------------------------------------7-----
E|-------------------3-----2-----0--------------------------0--------------------------------------

E|-------------------0-----------2--0-
B|----------0--1--3-----0--------0--0-
G|---0h2-------------------2--0--2--0-
D|-------------------------------1--2-
A|-------------0--2--3-----------2--2-
E|----------3-----------3--2--0-----0-










Song lyrics here
E|--
B|--
G|--
D|--
A|--
E|--

Paste any tab in acousterr's tab maker and we'll play it !!!
Now supports capo and sound effects for vibrato/pull-off/hammer/bends/mutes etc !!! Checkout help section
tabs and chords, guitar tabs, music transcription, music technology, deep learning, music information retrieval, transcribe into tabs & chords, chordify, music renditions, songsterr, reverbnation, tabulature, bollywood chords, ultimate guitar, yousician, guitar lessons, acoustic guitar, electric guitar, guitar tuner, 911 tabs