Guitar Tabs for Go Away

(/) Slide Up  (\) Slide Down  (h) Hammer On  (p) Pull Off  (b) Bend (r) Release (v) Vibrato (x) Muted

Tabs for Song : Go Away by Household

          You   keep  your  door  shut  tight so    no    one   finds out   where you   hide
E|--------------------------------------------------------------------------------------------------
B|--------------------------------------------------------------------------------------------------
G|--------------------------------------------------------------------------------------------------
D|--------------------------------------------------------------------------5--5-----5--5--4--4--4--
A|--------------------------------------------------------------3--3--5--5--------------------------
E|--5--5--5--5--3--3--2--2--5--5--5--5--3--3--2--2--5--5--5--5--------------------------------------
          Your  path  is    clear-ly    marked it's paved with  gold  and   bathed in   light
E|--------------------------------------------------------------------------------------------------
B|--------------------------------------------------------------------------------------------------
G|--------------------------------------------------------------------------------------------------
D|--------------------------------------------------------------------------5--5-----5--5--4--4--4--
A|--------------------------------------------------------------3--3--5--5--------------------------
E|--5--5--5--5--3--3--2--2--5--5--5--5--3--3--2--2--5--5--5--5--------------------------------------
          I     have  no    an-   swers for   you         I     sway  from  side  to    side
E|--------------------------------------------------------------------------------------------------
B|--------------------------------------------------------------------------------------------------
G|--------------------------------------------2--2--------------------------------------------2--2--
D|--------------------------------------5--5--------------------------------------------5--5--------
A|--------------3--3--3--3--2--2--2--2--------------------------3--3--3--3--2--2--2--2--------------
E|--5--5--5--5--------------------------------------5--5--5--5--------------------------------------
    (No   one   tells me    where to    go    I'm   like  a     leaf  in    drif- ting  snow)
E|--------------------------------------------------------------------------------------------------
B|--------------------------------------------------------------------------------------------------
G|--------------------------------------------2--2--------------------------------------------2--2--
D|--------------------------------------5--5--------------------------------------------5--5--------
A|--------------3--3--3--3--2--2--2--2--------------------------3--3--3--3--2--2--2--2--------------
E|--5--5--5--5--------------------------------------5--5--5--5--------------------------------------
    De-      fe-      ctive de-      fe-      ctive all      things   turn  so-      ur
E|--------------------------------------------------------------------------------------------------
B|--------------------------------------------------------------------------------------------------
G|------------------------------------------------------------------------------------111--1--------
D|------------------------------------------------------------------------------------222--2--------
A|--5--5--5--5--5--5--5--5--3--3--3--3--3--3--3--3------------------------------------222--2--------
E|--------------------------------------------------5--5--5--5--5--5--5--5--3--3------000--0--------
    I        lose     per-  spe-     ctive    so    days     seem     like  ho-      urs
E|--------------------------------------------------------------------------------------------------
B|--------------------------------------------------------------------------------------------------
G|------------------------------------------------------------------------------------111--1--------
D|------------------------------------------------------------------------------------222--2--------
A|--5--5--5--5--5--5--5--5--3--3--3--3--3--3--3--3------------------------------------222--2--------
E|--------------------------------------------------5--5--5--5--5--5--5--5--3--3------000--0--------
    They     can      see   They     can      see   Un-      yield-   ing   eyes     shut   
E|--------------------------------------------------------------------------------------------------
B|--------------------------------------------------------------------------------------------------
G|------------------------------------------------------------------------------------111--1--------
D|------------------------------------------------------------------------------------222--2--------
A|--5--5--5--5--5--5--5--5--3--3--3--3--3--3--3--3------------------------------------222--2--------
E|--------------------------------------------------5--5--5--5--5--5--5--5--3--3------000--0--------
    How      come     he    won't    make     me    some-    thing    that  I'm      not?
E|--------------------------------------------------------------------------------------------------
B|--------------------------------------------------------------------------------------------------
G|------------------------------------------------------------------------------------111--1--------
D|------------------------------------------------------------------------------------222--2--------
A|--5--5--5--5--5--5--5--5--3--3--3--3--3--3--3--3------------------------------------222--2--------
E|--------------------------------------------------5--5--5--5--5--5--5--5--3--3------000--0--------

Paste any tab in acousterr's tab maker and we'll play it !!!
Now supports capo and sound effects for vibrato/pull-off/hammer/bends/mutes etc !!! Checkout help section
tabs and chords, guitar tabs, music contests, music covers, songsterr, reverbnation, renditions, tabulature, bollywood chords, ultimate guitar, yousician, guitar lessons, torrins, fender, gibson, acoustic guitar, electric guitar, youtube covers, gootar, guitar tuner, A-Z tabs, 911 tabs