Guitar Tabs for Go And Stay

(/) Slide Up  (\) Slide Down  (h) Hammer On  (p) Pull Off  (b) Bend (r) Release (v) Vibrato (x) Muted

Tabs for Song : 

Song lyrics here
E|--------------------------------------------------
B|--------------------------------------------------
G|--------------------------------------------------
D|--------------------------------------------------
A|--1--1--1--1--1--1--1--1--1--1--1--1--3--3--5-----
E|-----------------------------------------------3--

E|--------------------------------------------------
B|--------------------------------------------------
G|--------------------------------------------------
D|--------------------------------------------------
A|--------------1--1--1-----------------------------
E|--1--1--1--1-----------3--3--3--3--3--3--3--3--3--

E|--------------------------------------------------------------------------------------------------
B|--------------------------------------------------------------------------------------------------
G|--------------------------------------------------------------------------------------------------
D|-----------------------------------------------------------------------8--8--8--8--8--8--8--8--8--
A|--10-10-10-10-8--8--8-----------------------------10-10-10-10-8--8--8-----------------------------
E|-----------------------6--6--6--6--6--6--6--6--6--------------------------------------------------

E|--------------------------------------------------------------------------------------------------
B|--------------------------------------------------------------------------------------------------
G|--------------------------------------------------------------------------------------------------
D|--------------------------------------------------------------------------------------------------
A|--1--1--1--1--1--1--1--1--1--1--1--1--1--1--1--1--------------------------------------------------
E|--------------------------------------------------3--3--3--3--3--3--3--3--3--3--3--3--3--3--3--3--

E|--------------------------------------------------------------------------------------------------
B|--------------------------------------------------------------------------------------------------
G|--------------------------------------------------------------------------------------------------
D|--------------------------------------------------------------------------------------------------
A|--1--1--1--1--1--1--1--1--1--1--1--1--1--1--1--1--------------------------------------------------
E|--------------------------------------------------3--3--3--3--3--3--3--3--1--1--1--1--1--1--1--1--







Song lyrics here
E|--
B|--
G|--
D|--
A|--
E|--

Now supports capo and sound effects for vibrato/pull-off/hammer/bends/mutes etc !!! Checkout help section
tabs and chords, guitar tabs, music transcription, music technology, deep learning, music information retrieval, transcribe into tabs & chords, chordify, music renditions, songsterr, reverbnation, tabulature, bollywood chords, ultimate guitar, yousician, guitar lessons, acoustic guitar, electric guitar, guitar tuner, 911 tabs