Girl Of My Dreams - Jonas Brothers - Guitar Tabs

Nick Jonas
    
                                                                                                                                                                                                                                                                                                                                                                                                                                                                                                                                                                                                                                                                                                                                                                                                                                                                                                                                                                                                                                                                                                                                                                                              
E|-------------------------|-----------------------|
B|-------------------------|-----------------------|
G|-------------------------|-----------------------|
D|--------2--2-------------|------2--2-------------|
A|--------------5--5--4--4-|------------5--5--4--4-|
E|--0--0-------------------|0--0-------------------|

    
                                                                                                                                                                                                                                                                                                                                                                                                                                                                                                                                                                                                                                                                                                                                                                                                                                                                                                                                                                                                                                                                                                                                                                                              
E|-------------------------|-----------------------|
B|-------------------------|-----------------------|
G|--------2--2-------------|------2--2-------------|
D|--------------5--5--4--4-|------------5--5--4--4-|
A|--0--0-------------------|0--0-------------------|
E|-------------------------|-----------------------|

    
                                                                                                                                                                                                                                                                                                                                                                                                                                                                                                                                                                                                                                                                                                                                                                                                                                                                                                                                                                                                                                                                                                                                                                                              
E|-------------------------|-----------------------|
B|-------------------------|-----------------------|
G|-------------------------|-----------------------|
D|--------2--2-------------|------2--2-------------|
A|--------------5--5--4--4-|------------5--5--4--4-|
E|--0--0-------------------|0--0-------------------|

    
                                                                                                                                                                                                                                                                                                                                                                                                                                                                                                                                                                                                                                                                                                                                                                                                                                                                                                                                                                                                                                                                                                                                                                                              
E|-------------------------|-----------------------|
B|-------------------------|-----------------------|
G|--4--4--4--4--4--4--4--4-|4--4--4--4--4--4--4--4-|
D|--4--4--4--4--4--4--4--4-|4--4--4--4--4--4--4--4-|
A|--2--2--2--2--2--2--2--2-|2--2--2--2--2--2--2--2-|
E|-------------------------|-----------------------|

    
                                                                                                                                                                                                                                                                                                                                                                                                                                                                                                                                                                                                                                                                                                                                                                                                                                                                                                                                                                                                                                                                                                                                                                                              
E|-------------------------|-----------------------|
B|-------------------------|-----------------------|
G|--7--7--7--7--7--7--7--7-|6--7--7--6--7--7--6--7-|
D|--7--7--7--7--7--7--7--7-|6--7--7--6--7--7--6--7-|
A|--5--5--5--5--5--5--5--5-|4--5--5--4--5--5--4--5-|
E|-------------------------|-----------------------|

    
                                                                                                                                                                                                                                                                                                                                                                                                                                                                                                                                                                                                 
E|-------------------------|
B|-------------------------|
G|--9----------------------|
D|--9----------------------|
A|--7----------------------|
E|-------------------------|

    
                                                                                                                                                                                                                                                                                                                                                                                                                                                                                                                                                                                                                                                                                                                                                                                                                                                                                                                                                                                                                                                                                                                                                                                              
E|-------------------------|-----------------------|
B|-------------------------|-----------------------|
G|-------------------------|-----------------------|
D|--------2--2-------------|------2--2-------------|
A|--------------5--5--4--4-|------------5--5--4--4-|
E|--0--0-------------------|0--0-------------------|

    
                                                                                                                                                                                                                                                                                                                                                                                                                                                                                                                                                                                                 
E|-------------------------|
B|-------------------------|
G|-------------------------|
D|--7----------------------|
A|--7----------------------|
E|--5----------------------|

    
                                                                                                                                                                                                                                                                                                                                                                                                                                                                                                                                                                                                                                                                                                                                                                                                                                                                                                                                                                                                                                                                                                                                                                                              
E|-------------------------|-----------------------|
B|-------------------------|-----------------------|
G|--4--4--4--4--4--4--4--4-|3--4--4--3--4--4--3--4-|
D|--4--4--4--4--4--4--4--4-|3--4--4--3--4--4--3--4-|
A|--2--2--2--2--2--2--2--2-|1--2--2--1--2--2--1--2-|
E|-------------------------|-----------------------|

    
                                                                                                                                                                                                                                                                                                                                                                                                                                                                                                                                                                                                 
E|-------------------------|
B|-------------------------|
G|--9----------------------|
D|--9----------------------|
A|--7----------------------|
E|-------------------------|

    
                                                                                                                                                                                                                                                                                                                                                                                                                                                                                                                                                                                                                                                                                                                                                                                                                                                                                                                                                                                                                                                                                                                                                                                              
E|-------------------------|-----------------------|
B|-------------------------|-----------------------|
G|-------------------------|-----------------------|
D|--------2--2-------------|------2--2-------------|
A|--------------5--5--4--4-|------------5--5--4--4-|
E|--0--0-------------------|0--0-------------------|

    
                                                                                                                                                                                                                                                                                                                                                                                                                                                                                                                                                                                                 
E|-------------------------|
B|-------------------------|
G|-------------------------|
D|--7----------------------|
A|--7----------------------|
E|--5----------------------|

    
                                                                                                                                                                                                                                                                                                                                                                                                                                                                                                                                                                                                                                                                                                                                                                                                                                                                                                                                                                                                                                                                                                                                                                                              
E|-------------------------|-----------------------|
B|-------------------------|-----------------------|
G|--4--4--4--4--4--4--4--4-|3--4--4--3--4--4--3--4-|
D|--4--4--4--4--4--4--4--4-|3--4--4--3--4--4--3--4-|
A|--2--2--2--2--2--2--2--2-|1--2--2--1--2--2--1--2-|
E|-------------------------|-----------------------|

    
                                                                                                                                                                                                                                                                                                                                                                                                                                                                                                                                                                                                                                                                                                                                                                                                                                                                                                                                                                                                                                                                                                                                                                                              
E|-------------------------|-----------------------|
B|-------------------------|-----------------------|
G|--9--9--9--x--9--9--9--x-|9--9--9--x--9--9--9--x-|
D|--9--9--9--x--9--9--9--x-|9--9--9--x--9--9--9--x-|
A|--7--7--7--x--7--7--7--x-|7--7--7--x--7--7--7--x-|
E|-------------------------|-----------------------|

    
                                                                                                                                                                                                                                                                                                                                                                                                                                                                                                                                                                                                                                                                                                                                                                                                                                                                                                                                                                                                                                                                                                                                                                                              
E|-------------------------|-----------------------|
B|-------------------------|-----------------------|
G|-------------------------|-----------------------|
D|--9--9--9--x--9--9--9--x-|9--9--9--x--9--9--9--x-|
A|--9--9--9--x--9--9--9--x-|9--9--9--x--9--9--9--x-|
E|--7--7--7--x--7--7--7--x-|7--7--7--x--7--7--7--x-|

    
                                                                                                                                                                                                                                                                                                                                                                                                                                                                                                                                                                                                                                                                                                                                                                                                                                                                                                                                                                                                                                                                                                                                                                                              
E|-------------------------|-----------------------|
B|-------------------------|-----------------------|
G|-------------------------|-----------------------|
D|--11-11-11-x--11-11-11-x-|11-11-11-x--11-11-11-x-|
A|--11-11-11-x--11-11-11-x-|11-11-11-x--11-11-11-x-|
E|--9--9--9--x--9--9--9--x-|9--9--9--x--9--9--9--x-|

    
                                                                                                                                                                                                                                                                                                                                                                                                                                                                                                                                                                                                                                                                                                                                                                                                                                                                                                                                                                                                                                                                                                                                                                                              
E|-------------------------|-----------------------|
B|-------------------------|-----------------------|
G|-------------------------|-----------------------|
D|--7--7--7--x--7--7--7--x-|7--7--7--x--7--7--7--x-|
A|--7--7--7--x--7--7--7--x-|7--7--7--x--7--7--7--x-|
E|--5--5--5--x--5--5--5--x-|5--5--5--x--5--5--5--x-|

    
                                                                                                                                                                                                                                                                                                                                                                                                                                                                                                                                                                                                                                                                                                                                                                                                                                                                                                                                                                                                                                                                                                                                                                                              
E|-------------------------|-----------------------|
B|-------------------------|-----------------------|
G|--9--9--9--x--9--9--9--x-|9--9--9--x--9--9--9--x-|
D|--9--9--9--x--9--9--9--x-|9--9--9--x--9--9--9--x-|
A|--7--7--7--x--7--7--7--x-|7--7--7--x--7--7--7--x-|
E|-------------------------|-----------------------|

    
                                                                                                                                                                                                                                                                                                                                                                                                                                                                                                                                                                                                                                                                                                                                                                                                                                                                                                                                                                                                                                                                                                                                                                                              
E|-------------------------|-----------------------|
B|-------------------------|-----------------------|
G|-------------------------|-----------------------|
D|--9--9--9--x--9--9--9--x-|9--9--9--x--9--9--9--x-|
A|--9--9--9--x--9--9--9--x-|9--9--9--x--9--9--9--x-|
E|--7--7--7--x--7--7--7--x-|7--7--7--x--7--7--7--x-|

    
                                                                                                                                                                                                                                                                                                                                                                                                                                                                                                                                                                                                                                                                                                                                                                                                                                                                                                                                                                                                                                                                                                                                                                                              
E|-------------------------|-----------------------|
B|-------------------------|-----------------------|
G|-------------------------|-----------------------|
D|--11-11-11-x--11-11-11-x-|11-11-11-x--11-11-11-x-|
A|--11-11-11-x--11-11-11-x-|11-11-11-x--11-11-11-x-|
E|--9--9--9--x--9--9--9--x-|9--9--9--x--9--9--9--x-|

    
                                                                                                                                                                                                                                                                                                                                                                                                                                                                                                                                                                                                                                                                                                                                                                                                                                                                                                                                                                                                                                                                                                                                                                                              
E|-------------------------|-----------------------|
B|-------------------------|-----------------------|
G|-------------------------|-----------------------|
D|--7--7--7--x--7--7--7--x-|7--7--7--x--7--7--7--x-|
A|--7--7--7--x--7--7--7--x-|7--7--7--x--7--7--7--x-|
E|--5--5--5--x--5--5--5--x-|5--5--5--x--5--5--5--x-|

    
                                                                                                                                                                                                                                                                                                                                                                                                                                                                                                                                                                                                                                                                                                                                                                                                                                                                                                                                                                                                                                                                                                                                                                                              
E|-------------------------|-----------------------|
B|-------------------------|-----------------------|
G|-------------------------|-----------------------|
D|--------2--2-------------|------2--2-------------|
A|--------------5--5--4--4-|------------5--5--4--4-|
E|--0--0-------------------|0--0-------------------|

    
                                                                                                                                                                                                                                                                                                                                                                                                                                                                                                                                                                                                                                                                                                                                                                                                                                                                                                                                                                                                                                                                                                                                                                                              
E|-------------------------|-----------------------|
B|-------------------------|-----------------------|
G|-------------------------|-----------------------|
D|--------2--2-------------|------2--2-------------|
A|--------------5--5--4--4-|------------5--5--4--4-|
E|--0--0-------------------|0--0-------------------|

    
                                                                                                                                                                                                                                                                                                                                                                                                                                                                                                                                                                                                                                                                                                                                                                                                                                                                                                                                                                                                                                                                                                                                                                                              
E|-------------------------|-----------------------|
B|-------------------------|-----------------------|
G|--------2--2-------------|------2--2-------------|
D|--------------5--5--4--4-|------------5--5--4--4-|
A|--0--0-------------------|0--0-------------------|
E|-------------------------|-----------------------|

    
                                                                                                                                                                                                                                                                                                                                                                                                                                                                                                                                                                                                                                                                                                                                                                                                                                                                                                                                                                                                                                                                                                                                                                                              
E|-------------------------|-----------------------|
B|-------------------------|-----------------------|
G|-------------------------|-----------------------|
D|--------2--2-------------|------2--2-------------|
A|--------------5--5--4--4-|------------5--5--4--4-|
E|--0--0-------------------|0--0-------------------|

    
                                                                                                                                                                                                                                                                                                                                                                                                                                                                                                                                                                                                                                                                                                                                                                                                                                                                                                                                                                                                                                                                                                                                                                                              
E|-------------------------|-----------------------|
B|-------------------------|-----------------------|
G|--4--4--4--4--4--4--4--4-|4--4--4--4--4--4--4--4-|
D|--4--4--4--4--4--4--4--4-|4--4--4--4--4--4--4--4-|
A|--2--2--2--2--2--2--2--2-|2--2--2--2--2--2--2--2-|
E|-------------------------|-----------------------|

    
                                                                                                                                                                                                                                                                                                                                                                                                                                                                                                                                                                                                                                                                                                                                                                                                                                                                                                                                                                                                                                                                                                                                                                                              
E|-------------------------|-----------------------|
B|-------------------------|-----------------------|
G|--7--7--7--7--7--7--7--7-|6--7--7--6--7--7--6--7-|
D|--7--7--7--7--7--7--7--7-|6--7--7--6--7--7--6--7-|
A|--5--5--5--5--5--5--5--5-|4--5--5--4--5--5--4--5-|
E|-------------------------|-----------------------|

    
                                                                                                                                                                                                                                                                                                                                                                                                                                                                                                                                                                                                 
E|-------------------------|
B|-------------------------|
G|--9----------------------|
D|--9----------------------|
A|--7----------------------|
E|-------------------------|

    
                                                                                                                                                                                                                                                                                                                                                                                                                                                                                                                                                                                                                                                                                                                                                                                                                                                                                                                                                                                                                                                                                                                                                                                              
E|-------------------------|-----------------------|
B|-------------------------|-----------------------|
G|-------------------------|-----------------------|
D|--------2--2-------------|------2--2-------------|
A|--------------5--5--4--4-|------------5--5--4--4-|
E|--0--0-------------------|0--0-------------------|

About Jonas Brothers discography : The Jonas Brothers have released five studio albums, three extended plays, three live albums, 27 singles,six promotional singles, 28 music videos and other album appearances . The band released five albums: It's About Time (2006) Jonas Brothers (2007), Jonas Brothers) In 2019, the band released their first single in nearly five years, "Sucker", which topped the Billboard Hot 100 . After a hiatus during 2011 to pursue solo-projects, the group reconciled in 2012 to record a new album . As of 2012, they have sold over 17 million albums worldwide. It had a contribution from notable artists like Jonas Brothers,Trying Times. It had an affiliation to bands - The Jonas Brothers,Happiness Begins.

tabs and chords, guitar tabs, music transcription, music technology, deep learning, music information retrieval, transcribe into tabs & chords, chordify, music renditions, songsterr, reverbnation, tabulature, bollywood chords, ultimate guitar, yousician, guitar lessons, acoustic guitar, electric guitar, guitar tuner, 911 tabs