Guitar Tabs for Girl Is On My Mind

(/) Slide Up  (\) Slide Down  (h) Hammer On  (p) Pull Off  (b) Bend (r) Release (v) Vibrato (x) Muted

Tabs for Song : Girl Is On My Mind - The Black Keys 

[Intro]
E|--------------------------------------------
B|--------5--------5--------5-----------------
G|---4\6------4\6------4\6-----4--4--2--------
D|--------------------------------------4--2--
A|--------------------------------------------
E|--------------------------------------------

[Solo] (2:10)
E|--------------------------------------
B|--------2--5---5\7--5-----------------
G|---2h4-----------------6--5--4--2-----
D|-----------------------------------4--
A|--------------------------------------
E|--------------------------------------

E|-----------------------------------
B|--------2--5---5\7--5-----5--------
G|---2h4-----------------6-----4--2--
D|-----------------------------------
A|-----------------------------------
E|-----------------------------------

E|--------------------------------------
B|--------2--5---5\7--5-----------------
G|---2h4-----------------6--5--4--2-----
D|-----------------------------------4--
A|--------------------------------------
E|--------------------------------------

E|------------------------------7b9--9---9r7--
B|--------2--5---5\7--5--5--7-----------------
G|---2h4--------------------------------------
D|--------------------------------------------
A|--------------------------------------------
E|--------------------------------------------





Chords:

[Intro] 

F# A B C#\B
F# A B C#      x2


[Verse 1]
F#       A               B     C#\B
Girl is on my mind
F#       A               B     C#\B
Try ignore, try to unwind,
F#       A               B     C#\B
But she is on my mind


[Verse 2] 
F#       A               B     C#\B
Eyes are in my eyes
F#       A               B     C#\B
Where I've been, how time flies,
F#       A               B     C#\B
When she is in my eyes

[Instrumental]
F# E F# A
F# E F# A
F# A B C#\B
F# A B C#\B
F# A B C#\B
F# A B C#\B

[Verse 3] (palm muted)
F#         A            B         C#\B
See her standing there
F#         A            B         C#\B
She's gentle now, and takes great care
F#         A            B         C#\B
See her standing there

[Verse 4]
F#         A            B         C#\B
Hold me close to you                       
x2

F#         A            B         C#\B
Not one thing, that I would not do
F#         A            B         C#\B
If you hold me close to you

[Outro]
F# E F# A
F# E F# A
F# A B C#\B
F# A B C#\B

[Solo]
F# A B C#\B
F# A B C#\B
F# A B C#\B
F# A B C#\B

[Outro] (palm muted/quietly played)

F# A B C#\B
Girl is on my mind
F# A B C#\B
She is on my mind
F# A B C#\B
Try to ignore it
F# A B C#\B
Try to unwind
F# A B C#\B
But she is on my mind
F# A B C#\B
Ooh-ooh~ooh
F# A B C#\B
Ooh~yeah
F# A B C#\B
Ooh~ooh~ooh-ooh-ooh
F# A B C#\B
Ooh~ooh~oh~yeah~ooh
F#
tabs and chords, guitar tabs, music transcription, music technology, deep learning, music information retrieval, transcribe into tabs & chords, chordify, music renditions, songsterr, reverbnation, tabulature, bollywood chords, ultimate guitar, yousician, guitar lessons, acoustic guitar, electric guitar, guitar tuner, 911 tabs