Giorno's Theme - Guitar Tabs

(/) Slide Up  (\) Slide Down  (h) Hammer On  (p) Pull Off  (b) Bend (r) Release (v) Vibrato (x) Muted

Tabs for Song : 
BPM :140


Song lyrics here 
E|-----------------------------------------------------
B|-----------------------------------------------------
G|--12----------------------------------12----12-------
D|--------13----13-15-16-15-13-12-13-15-------------10-
A|-----------------------------------------------------
E|-----------------------------------------------------

E|--------------------------------------------------------------------------------------------------------
B|--------------------------------------------------------------------------------------------------------
G|-----------------------15-13-12----------------------------------12----12-17----17-19-20----------20-16-
D|-----10-12-13-15-13-12-------------13----13-15-16-15-13-12-13-15-------------------------18-17-16-------
A|--------------------------------------------------------------------------------------------------------
E|--------------------------------------------------------------------------------------------------------

E|-----------------------------------------------------
B|-----------------------------------------------------
G|--14----------------------------------14----14-------
D|--------15----15-17-18-17-15-14-15-17----------12----
A|-----------------------------------------------------
E|-----------------------------------------------------

E|----------------------------------------------------------------------------------------------------------------
B|-----------------------------------------------------------------------------------------------------------------
G|--------------------17-15-14----------------------------------14----14-19----19-21-22----------22-18-19----------
D|--12-14-15-17-15-14-------------15----15-17-18-17-15-14-15-17-------------------------20-19-18-------------------
A|-----------------------------------------------------------------------------------------------------------------
E|-----------------------------------------------------------------------------------------------------------------

Song lyrics here 
E|--
B|--
G|--
D|--
A|--
E|--

Use manual mode to free up cursor. Paste any tab in acousterr tab maker and we'll play it !!!


About JoJo's Bizarre Adventure: Golden Wind : JoJo's Bizarre Adventure: Golden Wind is adapted from Hirohiko Araki's manga . Golden Wind, the fifth part of the JoJo Bizarre adventure, is adapted by David Production . The anime adaptation of Golden Wind was personally announced by Hirohiko Araki at the "Ripples of Adventure" art exhibition on June 21, 2018 . Golden Wind is chief directed by returning director Naokatsu Tsuda, accompanied by series directors Yasuhiro Kimura and Hideya Takahashi . The Golden Wind pilot debuted at Anime Expo on July 6, 2018 . The series formally aired from October 5 to July 28 2019 . The first opening theme is the 2018 single "Fighting Gold" by Coda (Kazusou Oda) JoJo's Bizarre Adventure: Golden Wind has a significant contribution from artist(s) JoJo's Bizarre Adventure,Golden Wind,David Production,Golden Wind,Hirohiko Araki.

tabs and chords, guitar tabs, music transcription, music technology, deep learning, music information retrieval, transcribe into tabs & chords, chordify, music renditions, songsterr, reverbnation, tabulature, bollywood chords, ultimate guitar, yousician, guitar lessons, acoustic guitar, electric guitar, guitar tuner, 911 tabs