Ghost Boy - Bass Tabs

(/) Slide Up  (\) Slide Down  (h) Hammer On  (p) Pull Off  (b) Bend (r) Release (v) Vibrato (x) Muted

Tabs for Song : 
BPM : 108

    leave me alone just leave me alone
F|--------------------------------------------------------
C|--------------------------------------------------------
G|--1--1--1-----------------------------1--1--1-----------
C|-----------3--3-----1--1--1--3--3--------------3--3-----

BPM: 324

    I ain't never gon' answer        I ain't never gon' pick up my phone girl
F|-----------5-----7--------------------------5-----7--8--7--5-------- 
C|--5--7--8-----7--------7-----------5--7--8-----7-----------------8--
G|--------------------------------------------------------------------
C|--------------------------------------------------------------------

BPM: 108

    I'm all on my own I'm all on my own
F|--------------------------------------
C|--------------------------------------    (x3)
G|--1--1--1-----------------------------
C|-----------3--3-----1--1--1--3--3-----
    I'm doin my thing     
F|--------------------------------------
C|--------------------------------------
G|--1--1--1-----------------------------
C|-----------3--3-----1--1--1-----------
    leave me alone just leave me alone
F|--------------------------------------
C|--------------------------------------    (x2)
G|--1--1--1-----------------------------
C|-----------3--3-----1--1--1--3--3-----

           ---BREAK---
                    when you are on your own
F|--------------------7-----------------------------------------------7-----------------------------
C|-----------------------10-------10-7--------7--8-----------------------10-------10-7--8-----------
G|--8--10----8--10-8-----------------------------------8v----------------------------------8--------
C|--------------------------------------------------------------------------------------------------

F|--------------------7-----------------------------------------------7-----------------------------
C|-----------------------10-------10-7--------7--8-----------------------10-------10-7--8-----------
G|--8--10----8--10-8-----------------------------------8v----------------------------------8--------
C|--------------------------------------------------------------------------------------------------

Song lyrics here 
F|--
C|--
G|--
C|--

Use manual mode to free up cursor. Paste any tab in acousterr tab maker and we'll play it !!!
tabs and chords, guitar tabs, music transcription, music technology, deep learning, music information retrieval, transcribe into tabs & chords, chordify, music renditions, songsterr, reverbnation, tabulature, bollywood chords, ultimate guitar, yousician, guitar lessons, acoustic guitar, electric guitar, guitar tuner, 911 tabs