Guitar Tabs for Can´t Get You Off My Mind

(/) Slide Up  (\) Slide Down  (h) Hammer On  (p) Pull Off  (b) Bend (r) Release (v) Vibrato (x) Muted

Tabs for Song : 

Song lyrics here
E|--3---------------3------------------------5\4-5-5\4-5--5---7--3-----------------3----------------------5-----
B|--3---------------3------------------------5\4-5-5\4-5--5------3-----------------3----------------------5-----
G|---------------0---------------------------5\4-5-5\4-5--5---------------------0-------------------------5-----
D|-------0-------------------------0h2-------------------------------0----------------------------0h2-----------
A|--2-------0h2-----2--------0h2--------0------------------------2----------0h2----2--------0h2--------0--------
E|--3---------------3-3--3---------------------------------------3-----------------3--3--3----------------------

Song lyrics here
E|---5\4---8\7--8--12\11-12-3--------------------------------3------------------------------------8\7--8--12\11-12-
B|---5\4-----------13\12-13-3--------------------------------3---------------------------5\4--5-----------13\12-13-
G|---5\4---9\8--9---------------0h-2p0-----------0-----------------------------------5---5\4--5---9\8--9-----------
D|---------------------------------------4p-0h2------2p0---------------------0h2-----5---5\4--5--------------------
A|--------------------------2--------------------------------2---------0h2--------0--7-----------------------------
E|--------------------------3-----------------------------3--3--3--3-----------------5-----------------------------



E|--15\14-15-------3-----------------2--------3-----------------2--------3-----------------3--------------------------
B|--17\16-17-------3-----------------3--------3-----------------3--------3-----------------3---------1p0-----------3--
G|-----------------------------------2--------------------------2------------------------------------0p------------2--
D|-----------------2---------0h2--0--0--------2---------0h2--0--0--------2---------------------0h2--------0---2/4-----
A|-----------0--2--3--3--3--------------0--2--3--3--3--------------0--2--3--3--3--3--2--0--2--------------------------
E|-----------------------------------------------------------------------------------------3--------------------------

E|--3-----------------3--------------------------------3---------------------------5\4--5---8\7--8--12\11-12-15\14-
B|--3-----------------3--------------------------------3-----------------------5---5\4--5-----------13\12-13-17\16-
G|------------------------0h-2p0-----------0-----------------------------------5---5\4--5---9\8--9-----------------
D|--2------------------------------4p-0h2------2p0---------------------0h2-----5-----------------------------------
A|--3--3--3--3--2--0--2--------------------------------2---------0h2--------0--------------------------------------
E|--------------------3-----------------------------3--3--3--3-----------------------------------------------------

E|--15-17-3--------------------------------3-----------------------5---5\4--5---8\7--8--12\11/12\11/12-------------
B|--17----3--------------------------------3-----------------------5---5\4--5--10\9--10-13\12/13\12/13-------------
G|------------0h-2p0-----------0-----------------------------------5---5\4--5--------------------------------------
D|---------------------4p-0h2------2p0---------------------0h2-----5-----------------------------------------------
A|--------2--------------------------------2---------0h2--------0--0-----------------------------------------------
E|--------3-----------------------------3--3--3--3-----------------------------------------------------------------
                                                                                  solo
E|--6-----6-----------7--------------------7--------------------7-----------------------------------------------------
B|--8--12-8-----8-----------8--------8-----------8--------8-----------8--------5--------------------15-------15-------
G|--7--12-7--7-----7-----7-----7--7-----7-----7-----7--7-----7-----7-----7--7-----------12-14-14b16----14b16----14b16-
D|--8--12-8-----------------------------------------------------------------------12/14-------------------------------
A|--6--10-6-----------------------------------------------------------------------------------------------------------
E|--------------------------------------------------------------------------------------------------------------------

E|-----------------------------------------------------------------------12-------------------14b15-14b15-17b19b17-
B|--------------15b17-15-13-15----------------------------------------12----12-15b17-15b17-15----------------------
G|--16p14-14b16----------------14-------14-14-14-------------12-14b16----------------------------------------------
D|--------------------------------14-14----------14-14-12/14-------------------------------------------------------
A|-----------------------------------------------------------------------------------------------------------------
E|-----------------------------------------------------------------------------------------------------------------

E|--15-17-15-------15----15-17-17b19-17p15-17-17----------17----------19----------------
B|-----------15-17----17-------------------------17-20b22----17-20b22----20b22-20b22-20-
G|--------------------------------------------------------------------------------------
D|--------------------------------------------------------------------------------------
A|--------------------------------------------------------------------------------------
E|--------------------------------------------------------------------------------------




















Paste any tab in acousterr's tab maker and we'll play it !!!
Now supports capo and sound effects for vibrato/pull-off/hammer/bends/mutes etc !!! Checkout help section
tabs and chords, guitar tabs, music transcription, music technology, deep learning, music information retrieval, transcribe into tabs & chords, chordify, music renditions, songsterr, reverbnation, tabulature, bollywood chords, ultimate guitar, yousician, guitar lessons, acoustic guitar, electric guitar, guitar tuner, 911 tabs