Bass Tabs for Gotta Get Back To Hogwarts

Tabs for Song : Get Back to Hogwarts

Harry has the opportunity to change the tempo and go whatever speed he wants for his opening part,
before it becomes upbeat. I suggest listening to the music a lot first because sometimes  the lines do
not perfectly line up with the notes below them, but they are always close. Some words are cut out to
line up with the notes better, represented with an elipses.

{This first line is about 144 beats per minutes and is played 6X} HARRY:
G|--12--------15-14------15-12--------19-17----------14---------------------------------------------12-
D|-----------------------------------------------------------------------------------------------------
A|-----------------------------------------------------------------------------------------------------
E|-----------------------------------------------------------------------------------------------------
"Underneath these stairs I hear the sneers and feel the glares of my cousin, my uncle and my aunt."
G|-----------------------------------------------------------------------------------------------------
D|-----------------------------------------------------------------------------------------------------
A|---------------------------------------------------------------------5/6-----------------------------
E|--3--------------------------------------------------------------------------------------------------
"I can't be-"
"lieve how cruel they are, and it stings my light-ning scar to know they'll never ever give me what I want.
G|-----------------------------------------------------------------------------------------------------
D|-----------------------------------------------------------------------------------------------------
A|--------------------------------------------------------------------------6--------------------------
E|-----------------------------------------------------------------------------------------------------
"I know I don't deserve these stupid rules made by the Dursleys  here on      Pri-vet Drive."
G|-----------------------------------------------------------------0--2--3-----3--2-----2--0-----------
D|-----------------------------------3--------------------------3--------------------------------------
A|--3--------------------------------------------------------------------------------------------------
E|-----------------------------------------------------------------------------------------------------
"Can't take all of these muggles, but despite all of my struggles...        I'm still alive"
G|-----------------------------------------------------------------------------------------------------
D|-----------------------------------------3-----------------------1--3--4-----------------------------
A|-----3-----------------------------------------------------------------------------------------------
E|-----------------------------------------------------------------------------------------------------
{Allegro}
"I'm sick of summer and this waiting around.          Man, it's September and I'm skippin' this town."
G|------------------------------=-------------------------------------------------------------
D|--1--1--1--1--3--3--3--3--3--5-----5-----3-----1-----1--1--1--3--3--3--3--3--5-----5-----3--
A|--------------------------------------------------------------------------------------------
E|--------------------------------------------------------------------------------------------
"Hey, it's no mystery, there's nothing here for me now.                          Gotta get back to"
G|-----------------------------------------------------------------------------------------------------
D|--1--------1--1--1--0--0--0--0-----------------------------------------------------------------------
A|-----------------------------------------------------3--3--3--3--3--3--3--3--3-----------------------
E|--------------------------------3--3--3--3--3--3--3--------------------------------------------------
"Hogwarts.                                 I gotta get back to schooooooool."
G|--------------------------------------------------0-----0-----0------------5--5--0--5--5--0--5-
D|--1-----1-----0--0--------------------3--3--3--4-----------------0-----------------------------
A|-----------------------3-----3--3--------------------------------------3-----------------------
E|-----------------------------------------------------------------------------------------------
"I gotta get myself to Hogwarts.        Where everybody knows I'M cool."
G|--0--------------------------------------------0--2--3-----3-----3-----------------------3--------
D|--------1-----1--0--------------------3-----3-----------------------3-----------------3-----3-----
A|-----------------------3--------------------------------------------------1-----1--1-----------1--
E|--------------------------------------------------------------------------------------------------
"Back to witches and wizards & ma - gi - cal  beasts.     Goblins and ghosts and magical feasts."
G|-----------------3--3--------------------0--0--------------------3--3--------------------0--0--------
D|--------1--------------------3-----3--3-----------3-----1--------------------3-----3--3-----------3--
A|-----------------------------------------------------------------------------------------------------
E|-----------------------------------------------------------------------------------------------------
"It's all that I love, and it's all that     I need   at Hog -  warts,       Hog - warts. (?) Going back
G|--------------3--3--3-----------------0--0--------------1--------------1-----------------------0--3--
D|-----1--------------------3--3--3--3--------3---3/5-----------1--------------1-----3--3--3--3--------
A|-----------------------------------------------------------------------------------------------------
E|-----------------------------------------------------------------------------------------------------
                                                            "I'll see my friends, gonna laugh til we cry."
G|--------3-----------------------------------------0--3--3-----3-----3-----3-----3-----3-----3--2-----0--
D|-----------------------------------------------3--------------------------------------------------------
A|--1-----------1-----1-----1-----1-----1-----1-----------------------------------------------------------
E|--------------------------------------------------------------------------------------------------------
      "Take my Firebolt, gonna take to the sky. No way this year anyone's   gonna     die," 
G|--0-----0-----0-----0-----0-----0-----------------------------------------------------
D|-----------------------------------3-----1-----1-----1--0--------------------0-----1--
A|--------------------------------------------------------------3-----3-----3-----------
E|--------------------------------------------------------------------------------------
"And it's gonna be totally awesome!                   I'll cast some spells with the flick of my wand,"
G|-----------------------------------------0--2--3-----3--------3-----3-----3-----3--2-----0-----
D|--1-----1--1--1--1--1--3--3--3--3--3--3--------------------------------------------------------
A|-----------------------------------------------------------------------------------------------
E|-----------------------------------------------------------------------------------------------
         "Defeat the    Dark  Arts,yeah, bring it on!    And do it    all w/ my best friend, RON."
G|--0-----0-----0-----0-----0-----0-----0--------------------------------------------------------
D|-----------------------------------------3-----1--------------0--------------------0-----1--1--
A|--------------------------------------------------------------------3--------------------------
E|-----------------------------------------------------------------------------------------------
"'Cause together, we're totally awesome!"    RON: "Yeah, and it's gonna be totally awesome!"
G|---------------------------------------------0/2/3-----------------------0---------------------
D|--1--1--1--1--1--1--1--1--3--3--3--3--3--3-----------------------------------------------------
A|-----------------------------------------------------------------------------------------------
E|-----------------------------------------------------------------------------------------------
(Did somebody say Ron Weasley? What's up buddy? Sorry it took me so long to get here, I had to get
G|--0-----0-----5--------5--5--------5--5--------5-----0--2--5--5--------5--5--------5--5-----5--
D|-----------------------------------------------------------------------------------------------
A|-----------------------------------------------------------------------------------------------
E|-----------------------------------------------------------------------------------------------
some floo powder but get your trunk lets go!) (Where are we going?) (To Diagon Alley of course!)
G|--------6--5--------5--5--------5--5-----------0--2--5--5--------5--5--0--2--0--------------------
D|--0--2-----------------------------------0--2-----------------------------------3-----2--0--------
A|-----------------------------------------------------------------------------------------------3--
E|--------------------------------------------------------------------------------------------------
(Floo powder power shtick)                                   It's been   so   long, but we're going back."
G|-----------0-----5--0--5--4--5--0-----0-----0--2--5--5-----5-----5-----5-----5-----5--------4-----2--
D|-----------------------------------------------------------------------------------------------------
A|-----3-----------------------------------------------------------------------------------------------
E|-----------------------------------------------------------------------------------------------------
"Don't go for work, don't go there for class." "As long as we're together" "...some ass,"
G|--------2-----2-----2-----2-----2--0-----------------------------------------------------
D|-----------------------------------------3-----------------2-----0--------------2-----3--
A|-----------------------------------------------------------------------------------------
E|-----------------------------------------------------------------------------------------
       "And  it's  gonna  be  totally awesome!           This year we'll take everybody by storm."
G|-----------------------0--0--0--0--0--0--0--2--5--5-----5-----5-----5-----5-----5-----5--4-----2--
D|-----3--3--3--3--3--3-----------------------------------------------------------------------------
A|--------------------------------------------------------------------------------------------------
E|--------------------------------------------------------------------------------------------------
      "Stay up     all    night, sneak out of our dorm." "But lets not forget, that we need to perform-"
G|-----2-----2-----2------0/2--------2-----0--------------------------------------------------------
D|-----------------------------------------------3-----3-----3--2-----0--------0-----0--2-----3-----
A|--------------------------------------------------------------------------------------------------
E|--------------------------------------------------------------------------------------------------
"-well in class, if we want to pass our OWLs!"
G|--------------------------0--0--0--0--0--0--0--0--1-----------------------1-----------------------1--
D|-----3--3--3--3--3--3--3--------------------------------------1--------------------1--1-----1--------
A|-----------------------------------------------------------------------------------------------------
E|-----------------------------------------------------------------------------------------------------

G|--------1--------------0-----------------------1-----1-----1-----1-----1-----1-----1--------1--1--
D|-----------1--------------------1--1-----1--------------------------------------------1--3--------
A|--------------------------------------------------------------------------------------------------
E|--------------------------------------------------------------------------------------------------
   (1)   "I    may    be    frum-py but I'm su-per smart.      Check out my grades; there's A's for a start."
G|--1-----1-----1-----1-----1-----1-----3--5--3--1--------1-----1-----1-----1-----------------------------
D|--------------------------------------------------------------------------------3-----1-----3-----1-----
A|-----------------------------------------------------------------------------------------------------4--
E|--------------------------------------------------------------------------------------------------------
"What I lack in looks, well, I make in heart, and well, guys, yeah, that's totally awesome!"
G|--------------------------------------------------------------------------------------1--1--
D|-----------1-----------------------1-----3--------------------1--1--1--1--1--1--1--3--------
A|-----------------4--------------------------------------------------------------------------
E|--------------------------------------------------------------------------------------------
      "This year    I     plan to   study a lot." "That would be cool, if you were actually hot."
G|-----1-----1-----1-----1-----1-----1--0--------------------------------------------------------
D|--------------------------------------------3--------3-----3-----3-----3-----3-----3--1--------
A|--------------------------------------------------------------------------------------------4--
E|-----------------------------------------------------------------------------------------------
"Hey Ron, come on! We're the only friends that she's got." "And that's cool," "And that's totally awesome!"
G|--------------------------------------------------------------------------------------------
D|-----------------------------------------------------------------1-----1-----1-----1--------
A|--------3-----1-----------------3-----4--------4-----4-----4-----------------------------3--
E|--------------------------------------------------------------------------------------------
      "that's cool, and that's totally awesome!"
G|-----------------------------------------------------------------------------------
D|-----------------------------3--------------------------------3-----3--3--3--3--1--
A|-----3-----------------------------------------------------------------------------
E|-----------------------------------------------------------------------------------
"We're sick of summer and this waiting around.      It's like we're sitting in the lost and found."
G|--------------------------------------------------------------------------------------------------
D|-----1--------1--3--------3--5--------------3-----1-----1--1--1--3--3--3------3/5-----5-----------
A|--------------------------------------------------------------------------------------------------
E|--------------------------------------------------------------------------------------------------
"Don't take no sorcery for anyone to see how -                                   ...back to Hogwarts!"
G|--------------------------0-----0-----0-----------------5--5--5--5--0--------------------------------
D|--1--1--1--1--0--0--3--4-----------------0-----------------------------0-----------------------------
A|-----------------------------------------------3--------------------------3--------------------------
E|-----------------------------------------------------------------------------------------------------
                       "We gotta get back to school.                          We gotta get back to-"
G|--1-----------------------------------------------0-----0--------------------------5--5-----------------
D|--------------1--1--------------------3--3--3--4--------------------------------------------------0--1--
A|-----------------------3--3--3--3--3-----------------------------1--2--3--------3--------3--3--3--------
E|--------------------------------------------------------------------------------------------------------
"Hogwarts.                                                                               Back to wi-"
G|-----------------------------------------------0--2--3-----3-----3--3--3--3--3--3--3--------------
D|--1-----1-----0--0-----------------------3--3-----------------------------------------------------
A|-----------------------3--------3--3--3-----------------------------------------------------------
E|--------------------------------------------------------------------------------------------------
          "-tches and wizards and magical beasts.               Goblins and ghosts, and to magical feasts."
G|-----------------3--3--------------------0--0--------------------3--3--------------------0--0--------
D|--------1--------------------3--3--3--3-----------3-----1--------------------3-----3--3-----------3--
A|-----------------------------------------------------------------------------------------------------
E|-----------------------------------------------------------------------------------------------------
"It's all that I love and it's all that I need  at         Hog    warts,   hog warts, I think we're..."
G|-----------------3--3-----------------0--0-----------------1--------------1--------------------------
D|-----1--1--1--------------3--3--3--------------3------3/5--------1--------------1-----3--3--3--3--3--
A|-----------------------------------------------------------------------------------------------------
E|-----------------------------------------------------------------------------------------------------

G|--0--3--3-----3-----3-----3-----5-----5-----5--0--5-----5-----5-----5--0-----------5--5--------------
D|--------------------------------------------------------------------------3--------------------3--3--
A|-----------------------------------------------------------------------------------------------------
E|-----------------------------------------------------------------------------------------------------

G|-----5--5-----5--------------2--2--------7--7--------2--2--------------------5--5--------------------5--5--
D|--------------------0-----------------------------------------0-----3--------------------3--3--------------
A|-----------------------------------------------------------------------------------------------------------
E|-----------------------------------------------------------------------------------------------------------

G|-----------------2--2--------------------0--0--------------------5--5--------------------5--5-----5-----
D|--1-----0--------------------0--0-----------------3-----3--------------------3--3--------------3-----3--
A|--------------------------------------------------------------------------------------------------------
E|--------------------------------------------------------------------------------------------------------
                                                       {Cho Chang's theme starts playing}
G|--1--------------------2--2--------------------------------5--5--------------------5--5-----7--
D|-----------1--1--------------------0--0-----0-----3--------------------3--3--------------------
A|-----------------------------------------------------------------------------------------------
E|-----------------------------------------------------------------------------------------------
                                       CHO CHANG & CO: "Cho  Chang!          Domo           arigato!"
G|-----7--------2--2--------------------2--2-----0--------------5--5--------------------5--5-----4-----
D|--------------------------0--0-----------------------3--------------------3--3-----------------------
A|-----------------------------------------------------------------------------------------------------
E|-----------------------------------------------------------------------------------------------------
   "Chang!              Gung     hei    fat          choy-Chang.      Happy, happy new year,"
G|--3--------------------3--3/5/3-------------5--------------5--5-----------------------------------
D|-----------3--3--------------------3--3-----------3--------------------------------3--3-----------
A|-----------------------------------------------------------------------0--3-----------------3-----
E|--------------------------------------------------------------------------------------------------
"Cho Chang!"              &   1  & 2  &  3
G|-----------------------3---3/-5/3-----------5--------------5--5--------------------5--5-----4-----3-----
D|-----------3--3--------------------3--3-----------3-----------------------3-----------------------------
A|--1-----------------------------------------------------------------------------------------------------
E|--------------------------------------------------------------------------------------------------------
                       1  &  2  & 3     4    (Freshman year)
G|---------------------3/-5/-3/-5/3--------------------5--5--------------------5--5--------4--3-----------------
D|--------3-----3-----------------------3-----3--------------------3--3--------------------------------3--3-----
A|--------------------------------------------------------------------------------------------------------------
E|--------------------------------------------------------------------------------------------------------------

G|-----3---3/-5/-3/-5/3--------------5--5--------------------5--5-----4-----3--------------------3--
D|--------------------------3--------------------3--3--------------------------------3--3-----------
A|--------------------------------------------------------------------------------------------------
E|--------------------------------------------------------------------------------------------------
     1  &  2  & 3  
G|---3/-5/-7/-5/3--------------------5--5--------------5--5--------5-----3--------3--3--------------------3--3--
D|--------------------3-----3--------------------3--3--------3--3-----------------------------3--3--------------
A|--------------------------------------------------------------------------------------------------------------
E|--------------------------------------------------------------------------------------------------------------
                                                                       (I'm Cho Chang, ya'll)
G|--------5--5--5--------------5--5--------------------5--5--------4--3--------------------3---3/-5/-7/-5/3-----
D|--------------------3--------------------3-----3-----------------------------3--3-----------------------------
A|--------------------------------------------------------------------------------------------------------------
E|--------------------------------------------------------------------------------------------------------------
    4
G|-----------------5--5--------------------5--5-----4-----3--------------------3--3--------3--3-----3--0--
D|--3-----3-----------------------3--------------------------------3--3-----------------------------------
A|--------------------------------------------------------------------------------------------------------
E|--------------------------------------------------------------------------------------------------------
{Line below is lined up with the lyrics.}
CEDRIC: "Cho Chang,   I am so in love with Cho Chang. From Bangkok to Ding Dang. I   sing my love a-loud  for-"
G|-----------------------------------------------------------------------------------------------0--2--0-----
D|-----------------------------------------------------------------------------------3--------------------3--
A|-----------------3--------------------0--1-----------------1--------------------3--------------------------
E|--------1-----------1-----------------------------------------------1--------------------------------------
  "Cho Chang!"
G|--3-----------------3-----3--------------------------------------------5--6-----------------------------
D|--------------------------------3-----3-----3-----3-----3-----3-----3-----------3-----3-----3-----3-----
A|--------------------------------------------------------------------------------------------------------
E|--------------------------------------------------------------------------------------------------------
                           (                                           ) {Repeat part below paranthesis-}
G|-----------------------------------------------------------------------
D|--3-----3--------1--3-----3-----3-----3-----3-----3-----3-----3--1--3--
A|-----------1--3--------------------------------------------------------
E|-----------------------------------------------------------------------
{Until the Grab and Goyle thing is done}
DRACO: (Grabba, Goyle, be a pair of proper dolls...)
G|--------------------1-----------------------------------4--3-----1--
D|--------------------------------------------------------------------
A|--------------------------------------------------------------------
E|--------------------------------------------------------------------
                                                      {Quarter note triple - piano}
G|--------------------------------------------------5---------------------------------6/5-----------------
D|--------------------------------------------------------------------------------------------3-----------
A|--------------------------------------------------------------------------------------------------------
E|--------------------------------------------------------------------------------------------------------

G|---------------5/3------5/-6/5-----------------------------------------------5-----------------------
D|-----------------------------------3-----------------------------------------------1--3--------------
A|-----------------------------------------------------------------------------------------------------
E|-----------------------------------------------------------------------------------------------------

G|------------5/6--5--------------------------------------------------------------------------------
D|--------------------3-----------------------------------------1--3-----3--------------------------
A|--------------------------------------------------------1--3--------------------------------------
E|--------------------------------------------------------------------------------------------------
                                    (She's my pain in the ass)
G|------------------1/0-----------------------------------5-----------------------------------------------
D|--------------------------3--3-----------------------------3--------------------1--3--------------------
A|--------------------------------------------------------------------------------------------------------
E|--------------------------------------------------------------------------------------------------------

G|--------------------------------------------------------------------------------------------5-----------
D|--1--3--------1--3--------1--3--------1--3--1--3-----3-----3-----3-----3-----3-----3-----3-----3-----3--
A|--------------------------------------------------------------------------------------------------------
E|--------------------------------------------------------------------------------------------------------
                                               "This year you bet, gonna get out of here."
G|--------------------------------5-----5-----------------------------------------5-----6--
D|-----3-----3-----3-----3-----3-----------3-----3-----3-----3-----3-----3-----3-----------
A|-----------------------------------------------------------------------------------------
E|-----------------------------------------------------------------------------------------
        "The reign of Malf - foy is drawing near.      I'll   have the    greatest wizard  career,"
G|--------6-----6-----6-----6-----6-----6--5-----3--------3-----3-----3-----3-----3-----3-----3--6--
D|--------------------------------------------------------------------------------------------------
A|--------------------------------------------------------------------------------------------------
E|--------------------------------------------------------------------------------------------------
        "And It's gonna be totally awesome!               Look out world, for the dawn of the day."   
G|-----------------0--5--0--5--0--5--5-----5-----5-----------------------------------------5-----6--
D|--------------------------------------------------3-----3-----3-----3-----3-----3-----3-----------
A|--------------------------------------------------------------------------------------------------
E|--------------------------------------------------------------------------------------------------
   "When everyone will do WHATEVER I SAY!             And Potter won't be in my way."
G|-----6-----6-----6--1--6-----6-----6-----6--3-----------3-----------3-----3-----3-----3--3-----5--
D|--------------------------------------------------------------------------------------------------
A|--------------------------------------------------------------------------------------------------
E|--------------------------------------------------------------------------------------------------
"And then I'll be the one who is totally aweomse!"  GOYLE: "Yeah you'll be the one who is totally awesome."
G|-----5-----5-----5-----5--0-----5-----5-----5-----5--0-----5-----------------------------------------------
D|-----------------------------------------------------------------------------------------------------------
A|-----------------------------------------------------------------------------------------------------------
E|-----------------------------------------------------------------------------------------------------------

G|--5-----5-----5-----5-----5-----5-----5--0--2--5--5-----5-----5-----5-----5-----0-----0-----0-----0--5--5--
D|-----------------------------------------------------------------------------------------------------------
A|-----------------------------------------------------------------------------------------------------------
E|-----------------------------------------------------------------------------------------------------------
ALL: "Who    knows how   fast this year's gonna go?         Hand me a glass, let the butterbeer flow."
G|-----5-----5-----5-----5-----5-----5-----5--4-----2--------2-----2-----2-----2------1/2-----2-----2--0--------
D|--------------------------------------------------------------------------------2--------------------------3--
A|--------------------------------------------------------------------------------------------------------------
E|--------------------------------------------------------------------------------------------------------------
HARRY: "Maybe at last, I'll talk to Cho!        Oh no, that'd be way too awesome!"
G|--------------------------------------------------------------------------0--0--0--0--0--0--0--2-----5--
D|-----3-----3--2-----0--------0-----0--2-----3--------3-----3-----3--3--3--------------------------------
A|--------------------------------------------------------------------------------------------------------
E|--------------------------------------------------------------------------------------------------------
ALL: "We're back to learn everything that we can.           It's great to come back to where we began."
G|-----5-----5-----5-----5-----5-----5-----5--4-----2--------2-----2-----2-----2-----2-----2--0--------
D|--------------------------------------------------------------------------------------------------3--
A|-----------------------------------------------------------------------------------------------------
E|-----------------------------------------------------------------------------------------------------
   "And here we are, and  AL - A -KA - ZAM!     Here we go!        This is totally awesome!"
G|-----------------------------------------------------------------0--0--0--0--0--0--0--0--0-----0--
D|-----3-----3--2-----0-----------------2--3-----3-----3-----3--------------------------------------
A|--------------------------------------------------------------------------------------------------
E|--------------------------------------------------------------------------------------------------
                                      "Come on and teach us everything you know!"
G|--0-----0-----0-----0-----0-----0-----3-----------0--------0---0/2-----2-----0--------
D|-----------------------------------------------3-----------------------------------3--
A|--------------------------------------------------------------------------------------
E|--------------------------------------------------------------------------------------
"The summer's over and we're itching to go!" NEVILLE" (I think we're ready for... Albus Dumbledore!)
G|---------------------------0/2-----2-----0--------------------------------2-----------------------
D|------3/5-----5-----5--------------------------3--------3-----2-----2-----------------------------
A|--------------------------------------------------------------------------------------------------
E|--------------------------------------------------------------------------------------------------
ALL: "Aaaaaaaaaaaaaaaaaaaaaaaaaahhhhh, aaaaaaAAAHHHH" Badrian: "WelcoooOOOOOOOOMMMMMMEEEE"
G|-----3-----------------------3------3/-5/3--------------------------------------------------------------
D|--------------------------3--------------------3---------3/5--------------------------------------------
A|--------------------------------------------------------------------------------------------------------
E|--------------------------------------------------------------------------------------------------------
"to Hogwarts!" {+ a  3  +  4}   "I welcome all of you to school!" {+  a 3      4  +  1}
G|-----------------------------------------0-----------1--2--------2--2--5--------------
D|--------------3--3--2--2--0--------------------------------------------------------0--
A|-----------------------------------------------------------------------------3--4-----
E|--------------------------------------------------------------------------------------
"Did you know that here at  Hogwarts,{+a   3  +}    we've got a hidden swimming pool?"
G|--------------------------------------------------------------0-----------2--5--------
D|-----------------0-----2--3--------3--3--2--2--0--------------------------------------
A|--------------------------------------------------------------------------------------
E|--------------------------------------------------------------------------------------
"Welcome, welcome, welcome Hogwarts. {You get the rythm}Welcome hotties, nerds, and tools!"
G|--5--5--5--5--5-----------------------------------------------0-----------------1--2-----2--2--5--5-----
D|-----------------2--3-----------------3--3--2--2--0--------------------------------------------------0--
A|--------------------------------------------------------------------------------------------------------
E|--------------------------------------------------------------------------------------------------------
"Now that I've got you here at Hogwarts.                  I'd like to go over just a couple of rules."
G|-----------------------------------------------------------------------------------0-----------0--5--
D|--------------------------2--3-----------3--3--2--2--0-----------------------------------------------
A|-----------------------------------------------------------------------------------------------------
E|-----------------------------------------------------------------------------------------------------
(My name is Albus Dumbledore.)
G|--5-----5-----5-----5-----5-----5-----5--0--2--5--5-----5-----5-----5-----5-----5--------0--2--5--5--
D|-----------------------------------------------------------------------------------0--2--------------
A|-----------------------------------------------------------------------------------------------------
E|-----------------------------------------------------------------------------------------------------

G|-----5-----5-----5-----5-----5-----5--0--2--5--5-----5-----5-----5-----5-----5-----5-----0-----5--
D|--------------------------------------------------------------------------------------------------
A|--------------------------------------------------------------------------------------------------
E|--------------------------------------------------------------------------------------------------
                                          ALL: "Back to witches and wizards and magical beasts."
G|--5-----5-----5-----5-----5-----5-----5-----------------------0--0--------0-----0-----2--2-----0--
D|-----------------------------------------------------3--------------------------------------------
A|--------------------------------------------------------------------------------------------------
E|--------------------------------------------------------------------------------------------------
"To goblins and ghosts, and to magical feasts. It's all that I love, and it's all that I need."
G|--------------5--5--------0-----0--0--2--2--------------------5--5--------0-----0--0--2--2-----0-----
D|-----3-----------------------------------------2-----3-----------------------------------------------
A|-----------------------------------------------------------------------------------------------------
E|-----------------------------------------------------------------------------------------------------
  "Hog - warts,   hog - warts.           {Key change} Back to spells and enchantments, potions & friends!"
G|--3--------------3-----------2--2--2--2--2--2--2-----0-----------------------------------------4-----4--
D|--------3--------------3--------------------------------------------------------------------------------
A|--------------------------------------------------------------------------------------------------------
E|--------------------------------------------------------------------------------------------------------
(To Gryffindor, Hufflepuff, Ravenclaw, Slytherin!)          "Back to the place where our story begins at-"
G|--0-----------------------------------------4-----2-----0-----------------------------------------------
D|--------------------------------------------------------------------------------------------------------
A|--------------------------------------------------------------------------------------------------------
E|--------------------------------------------------------------------------------------------------------
   "Hog - warts!  Hog - warts!" (... it's name?)  "Hog - warts,   Hog - warts."
G|--5--------------5-----------2--2--2--2--2--2--2--5--------------5-----------2--2--2--2--2--2-----
D|--------5--------------5--------------------------------5--------------5--------------------------
A|--------------------------------------------------------------------------------------------------
E|--------------------------------------------------------------------------------------------------
   "Hog - warts,   Hog - warts." HARRY: (Man, I'm glad I'm back.)  {Button with piano.}
G|--5--------------5-----2-----------------------------------------7--------------
D|--------5-----------------------------------------------------------------------
A|--------------------------------------------------------------------------------
E|--------------------------------------------------------------------------------










Use manual mode to free up cursor. Paste any tab in acousterr tab maker and we'll play it !!!
tabs and chords, guitar tabs, music transcription, music technology, deep learning, music information retrieval, transcribe into tabs & chords, chordify, music renditions, songsterr, reverbnation, tabulature, bollywood chords, ultimate guitar, yousician, guitar lessons, acoustic guitar, electric guitar, guitar tuner, 911 tabs