Bass Tabs for Gary Moore - Walking By Myself

BASS TAB
Gary Moore - Walking By Myself

Intro & Verse
G|-----------------
D|-----------------  5x
A|-----5-----5--7--
E|--7-----7--------

G|-----------------------
D|-----------------------
A|-----------------------
E|--7--5--3--0-----0--0--


G|--------------------------------------------------------------------
D|--------------------------------------------------------------------
A|--------------------------------------------------------------------
E|--0-----0--0-----0--0-----0--0-----0--0-----0--0-----0--0-----0--0--

G|--------------------------------------------------------------------------
D|--------------------------------------------------------------------------
A|--------------------------------------------------------------------------
E|--0--0-----0--0-----0--0-----0--0-----0--0--2--3--4--5-----5--5-----5--5--

G|-----------------------------------------------------------------------
D|-----------------------------------------------------------------------
A|-----------------------------------------------------------------------
E|--5--5-----5--5-----5--5-----7-----7--7-----7--7-----7--7-----7--0-----

G|--------------------------------------------
D|--------------------------------------------
A|-----------------------------5--------------
E|--0--4--0--5--0--6--0--7--7-----7--6--5--3--



tabs and chords, guitar tabs, music transcription, music technology, deep learning, music information retrieval, transcribe into tabs & chords, chordify, music renditions, songsterr, reverbnation, tabulature, bollywood chords, ultimate guitar, yousician, guitar lessons, acoustic guitar, electric guitar, guitar tuner, 911 tabs