Guitar Tabs for California Blue

E|-----------------------------------------------------------------
B|-----------------------------------------------------------------
G|-----------------------------------------------------------------
D|--0--2--4--4-----4--2--5--4--5--4-----0--5--5--5--5--4--5--4-----
A|--------------------------------------------------------------4--
E|-----------------------------------------------------------------

E|-----------------------------------------------------------------
B|-----------------------------------------------------------------
G|-----------------------------------------------------------------
D|--2--2--2--0--2--4--0--2--4--4-----4--2--5--4--5--4--0-----------
A|-----------------------------------------------------------------
E|-----------------------------------------------------------------

E|-----------------------------------------------------------------
B|-----------------------------------------------------------------
G|--------------------------------------------------4--------------
D|--2--2--4--2-----5--4--4--2--2--0-----0--2--2--4-----------------
A|-----------------------------------------------------------------
E|-----------------------------------------------------------------

tabs and chords, guitar tabs, music transcription, music technology, deep learning, music information retrieval, transcribe into tabs & chords, chordify, music renditions, songsterr, reverbnation, tabulature, bollywood chords, ultimate guitar, yousician, guitar lessons, acoustic guitar, electric guitar, guitar tuner, 911 tabs