Guitar Tabs for Fur Elise

(/) Slide Up  (\) Slide Down  (h) Hammer On  (p) Pull Off  (b) Bend (r) Release (v) Vibrato

Tabs for Song : 

Song lyrics here
E|--12-11-12-11-12-7--10-8--5--------5--7--------7--8--0--
B|--------------------------------5-----------7-----------
G|-----------------------------5-----------7--------------
D|--------------------------------------------------------
A|--------------------------------------------------------
E|--------------------------------------------------------

E|--12-11-12-11-12-7--10-8--5--------5--7--0--8--7--5--
B|--------------------------------5--------------------
G|-----------------------------5-----------------------
D|-----------------------------------------------------
A|-----------------------------------------------------
E|-----------------------------------------------------

E|--7--8--10-12----13-12-10----12-10-8--0--10-8--7--0--12-0--12-12-
B|-----------------------------------------------------------------
G|--------------10----------10-------------------------------------
D|-----------------------------------------------------------------
A|-----------------------------------------------------------------
E|-----------------------------------------------------------------

E|--
B|--
G|--
D|--
A|--
E|--

Song lyrics here
E|--
B|--
G|--
D|--
A|--
E|--

Now supports capo and sound effects for vibrato/pull-off/hammer/bends etc !!! Checkout help section
tabs and chords, guitar tabs, music transcription, music technology, deep learning, music information retrieval, transcribe into tabs & chords, chordify, music renditions, songsterr, reverbnation, tabulature, bollywood chords, ultimate guitar, yousician, guitar lessons, acoustic guitar, electric guitar, guitar tuner, 911 tabs