Bass Tabs for Funeralopolis By Electric Wizard

(/) Slide Up  (\) Slide Down  (h) Hammer On  (p) Pull Off  (b) Bend (r) Release (v) Vibrato (x) Muted

Tabs for Song : Funeralopolis by Electric Wizard

Song lyrics here (x7 w/o Dist. x4 w/)
G|-------------------------------------------------------------------------
D|-------------------------------------------------------------------------
A|-------------------------------------------------------------------------
E|-------------------------------------------------------------------------
B|--12-12----12-10h12-12-12----12-10h12-12-12----10-0-----8--8--0----5--5--

Song lyrics here 
G|--------------------
D|--------------------
A|--------------------
E|--------------------
B|--0-----0--0--13-11-

G|--------------------------------------------
D|--------------------------------------------
A|--------------------------------------------
E|--------------------------------------------
B|--0-----0--0--6--5-----0--6--5-----0--3--5--

G|--------------------------------------------
D|--------------------------------------------
A|-----------------------------5-----------2--
E|--------------------------------------------
B|---0\12-12-12-12-12----0--8--------0--5-----



Now supports capo and sound effects for vibrato/pull-off/hammer/bends/mutes etc !!! Checkout help section
tabs and chords, guitar tabs, music contests, music covers, songsterr, reverbnation, renditions, tabulature, bollywood chords, ultimate guitar, yousician, guitar lessons, torrins, fender, gibson, acoustic guitar, electric guitar, youtube covers, gootar, guitar tuner, A-Z tabs, 911 tabs