Bass Tabs for Funeral

6(/) Slide Up  (\) Slide Down  (h) Hammer On  (p) Pull Off  (b) Bend (r) Release (v) Vibrato (x) Muted

Tabs for Song : 

S
D|---------------------------------------------------------------------------h
A|--------------------------------------------------------------------------
F|-----9-----10----12----10----9---9h10p9-----10----9-----12----10--9h10p9--
C|--0-----0-----0-----0-----0--------------10----10----10----10-------------

D|-----------------------------------h
A|-----------------------------------
F|-----9-----12----9--10-9---9h10p9--
C|--10----10----7--------------------


Song lyrics here
D|--------------------------------------------------------------0--------
A|------------------------------------------0h1--1-----0---0h1-----0-----
F|-----2---4h5------5p4---------4h5-----------------0-----------------0--
C|--0-----------0--------2--0--------3--2--------------------------------

Paste any tab in acousterr's tab maker and we'll play it !!!
Now supports capo and sound effects for vibrato/pull-off/hammer/bends/mutes etc !!! Checkout help section
tabs and chords, guitar tabs, music transcription, music technology, deep learning, music information retrieval, transcribe into tabs & chords, chordify, music renditions, songsterr, reverbnation, tabulature, bollywood chords, ultimate guitar, yousician, guitar lessons, acoustic guitar, electric guitar, guitar tuner, 911 tabs