Guitar Tabs for Free Fallin - John Mayer

(/) Slide Up  (\) Slide Down  (h) Hammer On  (p) Pull Off  (b) Bend (r) Release (v) Vibrato

Intro: 

E|--------------
B|--3-----------
G|--2--2--------
D|--0-----------
A|--------------
E|--------0--3--

E|-----------------------------
B|--3--3-----2------------2h3--
G|--2--2-----2--------2--------
D|-----------------2-----------
A|-----------0-----------------
E|--3--2-----------------------

E|--------------------------------------------------
B|------------3p2--0-----0--3--2------------2p3-----
G|--------2--------0-----0--2--2--------2-----------
D|-----0-----------------------------2--------------
A|-----------------------------0--------------------
E|--2--------------3-----3--2-----------------------

Verse & Chorus:

E|--------------------
B|--3--3-----3--3--2--
G|--2--2-----2--2--2--
D|--------------------
A|-----------------0--
E|--2--3-----3--2-----

Bridge:
palm muted, play just the base notes
E|--------------------------------------------------
B|--------------------------------------------------
G|--------------------------------------------------
D|--------------------------------------------------
A|--------------------------------------0--0--0--0--
E|--2--2--2--2--3--3--3--3--2--2--2--2--------------
stop on A
E|--------------
B|--2--2--2--2--
G|--2--2--2--2--
D|--2--2--2--2--
A|--0--0--0--0--
E|--------------

End with verse on A.

Lyrics: 

She's a good girl, loves her mama
Loves Jesus and America, too
She's a good girl, crazy 'bout Elvis
Loves horses and her boyfriend, too, yeah, yeah

It's a long day living in reseda
There's a freeway runnin' through the yard
I'm a bad boy 'cause I don't even miss her
I'm a bad boy for breaking her heart

And I'm free, free fallin', fallin'
And I'm free, free fallin', fallin'

All the vampires walkin' through the valley
They move west down Ventura boulevard
And all the bad boys are standing in the shadows
And the good girls are home with broken hearts

And I'm free, free fallin', fallin'
Now I'm free, free fallin', fallin'

Free fallin',
Now I'm free fallin',
Now I'm free fallin',
Now I'm free fallin',
Now I'm free fallin',
Now I'm free fallin',
Now I'm free fallin',
Now I'm free fallin'.

I wanna glide down over Mulholland
I wanna write her, her name in the sky
I wanna free fall out into nothin'
Oh, I'm gonna leave this, this world for a while

Now I'm free, free fallin', fallin'
Now I'm free, free fallin', fallin'
Now I'm free, free fallin', fallin'
Now I'm free, free fallin', fallin'
Free fallin', fallin'
Free fallin', fallin'
Free fallin', fallin' 
tabs and chords, guitar tabs, music contests, music covers, songsterr, reverbnation, renditions, tabulature, bollywood chords, ultimate guitar, yousician, guitar lessons, torrins, fender, gibson, acoustic guitar, electric guitar, youtube covers, gootar, guitar tuner, A-Z tabs, 911 tabs