Free Fall - Alejandro Silva - Guitar Tabs

gtr1
    
                                                                                                                                                                                                                                                                                                                                                                                                                                                                                                                                                                                                                                                                                                                                                                                                                                                                                                                                                                                                                                                                                                                                                                                              
E|-------------------------------|---------------------------------------19|
B|-------------------------------|---14-12-14----19-17-19----22-21-22------|
G|-----------------14-13-14------|-----------------------------------------|
D|---4/---16---------------------|-----------------------------------------|
A|-------------------------------|-----------------------------------------|
E|-------------------------------|-----------------------------------------|

    
                                                                                                                                                                                                                                                                                                                                                                                                                                                                                                                                                                                                                                                                                                                                                                                                                                                                                                                                                                                                                                                                                                                                                                                              
E|--21---------------------|---------------14-16-17-19----17-16---------|
B|-------------------------|------------14------------------------------|
G|-------------------------|---------14---------------------------------|
D|-------------------------|------16------------------------------------|
A|-------------------------|---16---------------------------------------|
E|-------------------------|14------------------------------------------|

    
                                                                                                                                                                                                                                                                                                                                                                                                                                                                                                                                                                                                                                                                                                                                                                                                                                                                                                                                                                                                                                                                                                                                                                                              
E|--16-------14---------------|-----------------------------------------------|
B|--------------14-17---------|---------------------------12-14-15-14---------|
G|----------------------------|---------13-11----11-13-14---------------------|
D|----------------------------|---------------14------------------------------|
A|----------------------------|-----------------------------------------------|
E|----------------------------|-----------------------------------------------|

    
                                                                                                                                                                                                                                                                                                                                                                                                                                                                                                                                                                                                                                                                                                                                                                                                                                                                                                                                                                                                                                                                                                                                                                                              
E|----------------------------|------14-------------------------------14-16-17-16------|
B|--------15----------15-14---|---------17-------------------14-15-17----------------14|
G|----------------------------|---------------16-14-13-14-16---------------------------|
D|----------------------------|--------------------------------------------------------|
A|----------------------------|--------------------------------------------------------|
E|----------------------------|--------------------------------------------------------|

    
                                                                                                                                                                                                                                                                                                                                                                                                                                                                                                                                                                                                                                                                                                                                                                                                                                                                                                                                                                                                                                                                                                                                                                                              
E|--17----17-16----14-17-21------|------21-21-19-22-------21-------19-------17------------|
B|-------------------------------|------------------21-19----19-17----17-15----15-14-17---|
G|-------------------------------|--------------------------------------------------------|
D|-------------------------------|--------------------------------------------------------|
A|-------------------------------|--------------------------------------------------------|
E|-------------------------------|--------------------------------------------------------|

    
                                                                                                                                                                                                                                                                                                                                                                                                                                                                                                                                                                                                                                                                                                                                                                                                                                                                                                                                                                                                                                                                                                                                                                                              
E|-------------------------------------------------|-----------------------------------------------------------------------------------------------|
B|--17-15-14---------------------------------------|-----------------------------------------------------------------------------------------------|
G|-----------16-14-13------------------------------|-----------------------------------------------------------------------------------------------|
D|--------------------16-14-12-14-16-14----12-11-12|14-12-11----12-14-16-14-12-11-12-14-12-11----11----------------------11-14-11------------------|
A|-------------------------------------------------|---------12-------------------------------14----12-14-12-11-12-11-12----------12---------------|
E|-------------------------------------------------|---------------------------------------------------------------------------------14-12-10-9--10|

    
                                                                                                                                                                                                                                                                                                                                                                                                                                                                                                                                                                                                 
E|-------------------------|
B|-------------------------|
G|-------------------------|
D|-------------------------|
A|-------------------------|
E|--19---------------------|

    
                                                                                                                                                                                                                                                                                                                                                                                                                                                                                                                                                                                                                                                                                                                                                                                                                                                                                                                                                                                                                                                                                                                                                                                              
E|-------------------------|--------------------------|
B|-------------------------|--------------------------|
G|--11-------9-----7-------|--------------------------|
D|-------------------------|---------------9----------|
A|-------------------------|--------------------------|
E|-------------------------|--------------------------|

    
                                                                                                                                                                                                                                                                                                                                                                                                                                                                                                                                                                                                                                                                                                                                                                                                                                                                                                                                                                                                                                                                                                                                                                                              
E|----------------------------|-----------------------------|
B|----------------------------|-----------------------------|
G|--9--------6--6-------------|-----------------------------|
D|----------------------------|---------------11-12---------|
A|----------------------------|---------9--12---------------|
E|----------------------------|-----------------------------|

    
                                                                                                                                                                                                                                                                                                                                                                                                                                                                                                                                                                                                                                                                                                                                                                                                                                                                                                                                                                                                                                                                                                                                                                                              
E|----------------------------|-----------------------------|
B|----------------------------|-----------------------------|
G|----------------------------|-----------------------------|
D|--12-------------11---------|9--------------7--7--------9-|
A|----------------------------|-----------------------------|
E|----------------------------|-----------------------------|

    
                                                                                                                                                                                                                                                                                                                                                                                                                                                                                                                                                                                                                                                                                                                                                                                                                                                                                                                                                                                                                                                                                                                                                                                              
E|----------------------------|--------------------------------|
B|--------------10-12----10---|--------------------------------|
G|--------------------------9-|------7--------11-7--9-----9--7-|
D|--9-------------------------|--------------------------------|
A|----------------------------|--------------------------------|
E|----------------------------|--------------------------------|

    
                                                                                                                                                                                                                                                                                                                                                                                                                                                                                                                                                                                                                                                                                                                                                                                                                                                                                                                                                                                                                                                                                                                                                                                              
E|----------------------------------|------17-12------------------------|
B|-----10-10----------14-14----17-17|------------14----15-15-------15-14|
G|--9-------------------------------|-----------------------------------|
D|----------------------------------|-----------------------------------|
A|----------------------------------|-----------------------------------|
E|----------------------------------|-----------------------------------|

    
                                                                                                                                                                                                                                                                                                                                                                                                                                                                                                                                                                                                                                                                                                                                                                                                                                                                                                                                                                                                                                                                                                                                                                                              
E|-------------------------------------------|---------------------------14-10----------10-14-17-15-14------------------------------------|
B|--12-------14-15-14-12----12-14-15---------|14-12----12-14-15-14-12----------12----12----------------17-15-14---------------------------|
G|-----------------------14------------------|------14----------------14----------14----------------------------16-14-12------------------|
D|-------------------------------------------|---------------------------------------------------------------------------16-14-12-11-12-14|
A|-------------------------------------------|--------------------------------------------------------------------------------------------|
E|-------------------------------------------|--------------------------------------------------------------------------------------------|

    
                                                                                                                                                                                                                                                                                                                                                                                                                                                                                                                                                                                                                                                                                                                                                                                                                                                                                                                                                                                                                                                                                                                                                                                              
E|-------------------------|--------------------------|
B|-------------------------|--------------------------|
G|-----------16----14------|---16-16-------14---------|
D|--11---------------------|------------------16------|
A|-------------------------|--------------------------|
E|-------------------------|--------------------------|

    
                                                                                                                                                                                                                                                                                                                                                                                                                                                                                                                                                                                                                                                                                                                                                                                                                                                                                                                                                                                                                                                                                                                                                                                              
E|--------14-16----------16-16------|---------14------------------------|
B|-----14---------------------------|------14----17-------------14----15|
G|--16------------------------------|------------------16-16------------|
D|----------------------------------|-----------------------------------|
A|----------------------------------|-----------------------------------|
E|----------------------------------|-----------------------------------|

    
                                                                                                                                                                                                                                                                                                                                                                                                                                                                                                                                                                                                                                                                                                                                                                                                                                                                                                                                                                                                                                                                                                                                                                                              
E|-----------------14---------------|-----------------------------------|
B|--14----15-14----------17---------|---10------------------------------|
G|--------------------14----13------|------9--11------------------------|
D|----------------------------------|------------7-----9----------------|
A|----------------------------------|---------------------7--9----------|
E|----------------------------------|---------------------------5-----12|

    
                                                                                                                                                                                                                                                                                                                                                                                                                                                                                                                                                                                                                                                                                                                                                                                                                                                                                                                                                                                                                                                                                                                                                                                              
E|-------------------------------------------|--------------------------------------------|
B|-------------------------------------------|--------------------------------------------|
G|--------------------9--11-9--11-------16-13|14----16-14-13-11-13-14-13-11-16----14----13|
D|-----------9--11-12------------------------|--------------------------------------------|
A|--9--11-12---------------------------------|--------------------------------------------|
E|-------------------------------------------|--------------------------------------------|

    
                                                                                                                                                                                                                                                                                                                                                                                                                                                                                                                                                                                                                                                                                                                                                                                                                                                                                                                                                                                                                                                                                                                                                                                              
E|-------------------------|--------------------------------------|
B|-------------------------|--------------------------------------|
G|-----------14-------16---|16----------14-16----18----16-14------|
D|--16---------------------|---------16---------------------------|
A|-------------------------|--------------------------------------|
E|-------------------------|--------------------------------------|

    
                                                                                                                                                                                                                                                                                                                                                                                                                                                                                                                                                                                                                                                                                                                                                                                                                                                                                                                                                                                                                                                                                                                                                                                              
E|-------------------------|-----------------------|
B|-----------------17----17|------14---------------|
G|-----------14------------|---------16------------|
D|--16---------------------|-----------------------|
A|-------------------------|-----------------------|
E|-------------------------|-----------------------|

    
                                                                                                                                                                                                                                                                                                                                                                                                                                                                                                                                                                                                                                                                                                                                                                                                                                                                                                                                                                                                                                                                                                                                                                                              
E|-------------------------------|------7--7--7--------------7--9--10-7--9--7--5--7-----5----------|
B|-------------------------------|7--------7--------7--8--10-------------------------8-----7--8--7-|
G|-----15------------------------|-----------------------------------------------------------------|
D|--------16-14----12------------|-----------------------------------------------------------------|
A|-------------------------------|-----------------------------------------------------------------|
E|-------------------------------|-----------------------------------------------------------------|

    
                                                                                                                                                                                                                                                                                                                                                                                                                                                                                                                                                                                                                                                                                                                                                                                                                                                                                                                                                                                                                                                                                                                                                                                              
E|-----------5----------------------------------------------------------------------------------------------|------------------------------5--9--5--7--9--7--5--9--12-10-9--------------------9--10-12-17|
B|--5--7--8-----7--8--7--5--7-------------------------------------------------------------------------------|---------------------------5-----------------------------------10-------------10------------|
G|-----------------------------7--9--7--6--7--4--6-----4--------------------4-------------------------------|------------------------6-----------------------------------------9--------9----------------|
D|--------------------------------------------------7-----5--7--5--4--5--7-----7--5--4----------------------|---------------------7-----------------------------------------------11-11------------------|
A|--------------------------------------------------------------------------------------7--5--4--5--7--5--4-|4--------------4--7-------------------------------------------------------------------------|
E|----------------------------------------------------------------------------------------------------------|---5-----5--5-------------------------------------------------------------------------------|

    
                                                                                                                                                                                                                                                                                                                                                                                                                                                                                                                                                                                                                                                                                                                                                                                                                                                                                                                                                                                                                                                                                                                                                                                              
E|--------------12-17-12-15-17-15-12-15-12-14-15-14-15-10-------------------------10-15-10-14-15-14-10|19------------------------------------------|
B|-----------14-------------------------------------------12-------------------12---------------------|---------17-------19-17-------------19------|
G|--------14-------------------------------------------------12-------------12------------------------|------16----16----------16-------16---------|
D|-----14----------------------------------------------------------------12---------------------------|------------------------------19------------|
A|--12-------------------------------------------------------------12-14------------------------------|--------------------------------------------|
E|----------------------------------------------------------------------------------------------------|--------------------------------------------|

    
                                                                                                                                                                                                                                                                                                                                                                                                                                                                                                                                                                                                                                                                                                                                                                                                                                                                                                                                                                                                                                                                                                                                                                                              
E|-----------17-22----21-19---------|24-22----21----24----22-21----26|
B|--19----19-------------------19---|--------------------------------|
G|----------------------------------|--------------------------------|
D|----------------------------------|--------------------------------|
A|----------------------------------|--------------------------------|
E|----------------------------------|--------------------------------|

    
                                                                                                                                                                                                                                                                                                                                                                                                                                                                                                                                                                                                                                                                                                                                                                                                                                                                                                                                                                                                                                                                                                                                                                                              
E|-----26-26-24-22-21-17----19-17-19---------|-----------------------------------------|
B|-----------------------17------------------|------14-17-15-14------------------------|
G|-------------------------------------------|---14-------------16-14-18-------18-16-14|
D|-------------------------------------------|16---------------------------------------|
A|-----------------------------------------16|-----------------------------------------|
E|-------------------------------------------|-----------------------------------------|

    
                                                                                                                                                                                                                                                                                                                                                                                                                                                                                                                                                                                                                                                                                                                                                                                                                                                                                                                                                                                                                                                                                                                                                                                              
E|----------------------------------------------|---------------------16-19-16-14----17-14-------16-12---|
B|----------------------------------------------|19----17-------15-17-------------15-------15-14-------14|
G|-----16----14-13----14----16-13---------------|--------------------------------------------------------|
D|--------------------------------------14------|--------------------------------------------------------|
A|-----------------------------------------14---|--------------------------------------------------------|
E|----------------------------------------------|--------------------------------------------------------|

    
                                                                                                                                                                                                                                                                                                                                                                                                                                                                                                                                                                                                                                                                                                                                                                                                                                                                                                                                                                                                                                                                                                                                                                                              
E|-----14-10-------12-9--------10-7--9--10-12-10-9-----9-------------------------------|--------------------------------------------------------------------------------------------------------------------------------------------|
B|--12-------12-10-------10-9-----------------------12----10-12-9----------------------|---12-15-14-15-14-12----12------------------------------------------------------------------------------------------------------------------|
G|--------------------------------------------------------------------11-9--------11-13|14-------------------14----14-13-14-13-11----13-11------------------------------------------------------------------------------------------|
D|--------------------------------------------------------------------------11---------|------------------------------------------14-------14-12-11-12-14-12-11----11----------------11---------------------------------------------|
A|-------------------------------------------------------------------------------------|------------------------------------------------------------------------14----12-14-12-11-12----12-11-12-11----11-12-14-11-12-11-9--11-7--9-|
E|-------------------------------------------------------------------------------------|------------------------------------------------------------------------------------------------------------14------------------------------|

    
                                                                                                                                                                                                                                                                                                                                                                                                                                                                                                                                                                                                                                                                                                                                                                                                                                                                                                                                                                                                                                                                                                                                                                                              
E|----------------------------------------------------------------------------------------------------------|-----------------------------------------------------------------------------------------------------------------------|
B|----------------------------------------------------------------------------------------------------------|-----------------------------------------------------------------------------------------------------------------------|
G|----------------------------------------------------------------------------------------------------------|------------------------------------------------------------------------------2--2-----------------------------6--7--9-|
D|----------------------------------------------------------------------------------------------------------|------------------2--4--6--4--2-----------------------------------2--2--4--6-----------------9--11-12------------------|
A|--7--5-----5-----------5--7--4--5--4-----4--------------------------4--5--7--5--4-------------------------|---------2--4--5-----------------5--4--2-----------------2--4--5--------------------7--9--11----------7--9--11---------|
E|--------9-----9--7--9-----------------7-----5--7--5--7--5--4--5--7-----------------7--5--7--5--4--2--2--0-|2--4--5-----------------------------------5--4--2--4--5----------------------------------------------------------------|

    
                                                                                                                                                                                                                                                                                                                                                                                                                                                                                                                                                                                                                                                                                                                                                                                                                                                                                                                                                                                                                                                                                                                                                                                              
E|-----------------------------7--9--10----------9--10-12----------10-12-14----------12-14-16-17-16-14---|---------5--------9----|
B|--------------------7--9--10----------9--10-12----------10-12-14----------12-14-15---------------------|7----------------------|
G|-----------6--7--9-------------------------------------------------------------------------------------|-----------------------|
D|--6--7--9----------------------------------------------------------------------------------------------|-----------------------|
A|-------------------------------------------------------------------------------------------------------|-----------------------|
E|-------------------------------------------------------------------------------------------------------|-----------------------|

    
                                                                                                                                                                                                                                                                                                                                                                                                                                                                                                                                                                                                                                                                                                                                                                                                                                                                                                                                                                                                                                                                                                                                                                                              
E|--7--------4-------------|------------12-10----9--9----|
B|--------------------5----|7----------------------------|
G|-------------------------|-----------------------------|
D|-------------------------|-----------------------------|
A|-------------------------|-----------------------------|
E|-------------------------|-----------------------------|

    
                                                                                                                                                                                                                                                                                                                                                                                                                                                                                                                                                                                                                                                                                                                                                                                                                                                                                                                                                                                                                                                                                                                                                                                              
E|-------------------------------------|9-----------14-12----10-9----|
B|-----------------------------------10|-----------------------------|
G|-----------------11----11----12------|-----------------------------|
D|-------------------------------------|-----------------------------|
A|-------------------------------------|-----------------------------|
E|-------------------------------------|-----------------------------|
tabs and chords, guitar tabs, music transcription, music technology, deep learning, music information retrieval, transcribe into tabs & chords, chordify, music renditions, songsterr, reverbnation, tabulature, bollywood chords, ultimate guitar, yousician, guitar lessons, acoustic guitar, electric guitar, guitar tuner, 911 tabs